PrimaNota.ru - самый крупный в мире бесплатный архив песенных текстов, аккордов, табулатур и нот


Children Of Bodom - Transference - таба, видео

Регистрация Запомнить меня
Войти через:  Facebook Google Twitter Vk Yandex Mail.ru

Children Of Bodom - Transference - таба, видео

Печатать
Просмотров: 374
Children of Bodom - Transference
Tabbed by Lorcan Ward
Guitar Solo is at 3:05
D Standard or Drop C tuning will both work since the 6th string isn't used

Check out my cover video:
http://www.youtube.com/watch?v=8bUqXPOe55A

|-------------------------------------------------------------------------|
|--12p11-------12p11------12p11------14p11------12p11-------14p11---------|
|--------13p11-------13p11------13p11------13p11------13p11-------13p11---|
|-------------------------------------------------------------------------|
|-------------------------------------------------------------------------|
|-------------------------------------------------------------------------|

|--14p11-------16p11--------14-11-13-14/16-13-14-16/18-14-16-18/19-16-18-19/21--|
|--------12p11-------12p11------------------------------------------------------|
|-------------------------------------------------------------------------------|
|-------------------------------------------------------------------------------|
|-------------------------------------------------------------------------------|
|-------------------------------------------------------------------------------|

|--18-19-21/22-19-21--21b23-t24p(23)rb21p19--------------------------------|
|--------------------------------------------21p19--21b23-t22p(23)r21p19---|
|--------------------------------------------------------------------------|
|--------------------------------------------------------------------------|
|--------------------------------------------------------------------------|
|--------------------------------------------------------------------------|

|------------16------16--16---------------------16---------------------|
|------------19b21-----------19--16---------16------19--16-------------|
|--20~~~-----------------------------18b19------------------19---------|
|----------------------------------------------------------------------|
|----------------------------------------------------------------------|
|----------------------------------------------------------------------|

|----------------------------------------------------------------------|
|--18--16----------16--------------------------------------------------|
|----------19--18------19--18--16--19--18--16--------------------------|
|----------------------------------------------18--16------------------|
|------------------------------------------------------18--17----------|
|----------------------------------------------------------------------|

|------------------------------------------16--21--19--16--------------|
|----------------------------------16--19------------------19--16------|
|--------------------------16--18--------------------------------------|
|--------------16--17--18----------------------------------------------|
|--16--17--18----------------------------------------------------------|
|----------------------------------------------------------------------|

|--19--18--16--19/23--19----------22b23~~~~~~--------------------------|
|-------------------------21--19---------------------------------------|
|----------------------------------------------------------------------|
|----------------------------------------------------------------------|
|----------------------------------------------------------------------|
|----------------------------------------------------------------------|


E Standard Tuning
|----------------------------------------------------------------------|
|--10p9------10p9------10p9------12p9------10p9-------12p9-------------|
|-------11p9------11p9------11p9------11p9------11p9-------11p9--------|
|----------------------------------------------------------------------|
|----------------------------------------------------------------------|
|----------------------------------------------------------------------|

|--12p9------14p9-------12-9-11-12/14-11-12-14/16-12-14-16/17-14-16-17/19--|
|-------10p9------10p9-----------------------------------------------------|
|--------------------------------------------------------------------------|
|--------------------------------------------------------------------------|
|--------------------------------------------------------------------------|
|--------------------------------------------------------------------------|

|--16-17-19/21-17-19--19b21-t22p(21)rb19p17--------------------------------|
|--------------------------------------------19p17--19b21-t20p(21)r19p17---|
|--------------------------------------------------------------------------|
|--------------------------------------------------------------------------|
|--------------------------------------------------------------------------|
|--------------------------------------------------------------------------|

|------------14------14--14---------------------14---------------------|
|------------17b19-----------17--14---------14------17--14-------------|
|--18~~~-----------------------------16b17------------------17---------|
|----------------------------------------------------------------------|
|----------------------------------------------------------------------|
|----------------------------------------------------------------------|

|----------------------------------------------------------------------|
|--16--14----------14--------------------------------------------------|
|----------17--16------17--16--14--17--16--14--------------------------|
|----------------------------------------------16--14------------------|
|------------------------------------------------------16--15----------|
|----------------------------------------------------------------------|

|------------------------------------------14--19--17--14--------------|
|----------------------------------14--17------------------17--14------|
|--------------------------14--16--------------------------------------|
|--------------14--15--16----------------------------------------------|
|--14--15--16----------------------------------------------------------|
|----------------------------------------------------------------------|

|--17--16--14--17/21--17----------20b21~~~~~~--------------------------|
|-------------------------19--17---------------------------------------|
|----------------------------------------------------------------------|
|----------------------------------------------------------------------|
|----------------------------------------------------------------------|
|----------------------------------------------------------------------|
Добавлено: 09.06.2013
Другие материалы по этой песне:

Страница создана 09.06.2013
http://primanota.ru/children-of-bodom/transference-chords.htm
Привет, Гость.
Предлагаем пройти революционный курс по гитаре.
Подарок от PrimaNota.Ru, забирай!