PrimaNota.ru - самый крупный в мире бесплатный архив песенных текстов, аккордов, табулатур и нот


Children Of Bodom - Shovel Knockout - таба, видео

Регистрация Запомнить меня
Войти через:  Facebook Google Twitter Vk Yandex Mail.ru

Children Of Bodom - Shovel Knockout - таба, видео

Печатать
Просмотров: 306
Уроки эстрадного вокала в Санкт-Петербурге
Artist: Children of Bodom
Song: Shovel Knockout
Album: Relentless Reckless Forever
Tabbed by drawnacrol
Tuning: Drop C ( C G C F A D )

Check out my cover video for fingering and phrasing:
http://www.youtube.com/watch?v=Aa4gkAYHw3g

|---------------------------------------------------------------------------|
|---------------------------------------------------------------------------|
|--11\9~---11b12r11--11~--9/11-12-14--14b15r14--12--14--12--10--10b12r10-12-|
|---------------------------------------------------------------------------|
|---------------------------------------------------------------------------|
|---------------------------------------------------------------------------|

|-------------------------------------------------------------------------|
|----------10----------11----------12~---8/12-----14b15--14~~--12/14--15--|
|--8h10h12----10h12h14----12h14h15-------------11-------------------------|
|-------------------------------------------------------------------------|
|-------------------------------------------------------------------------|
|-------------------------------------------------------------------------|

|----------------------------------------------------------------------|
|--17--17b18r17--15--17--15--------------------------------------------|
|----------------------------17--17b18r17--14--/17--/17--/14--/12------|
|-----------------------------------------------Wham bar---------------|
|----------------------------------------------------------------------|
|----------------------------------------------------------------------|


Guitar Solo:

|---------10---------------10--------------------13--12--10------10----|
|------------13p10------------13p10---------10---------------13-----13-|
|--12b13------------12b13------------12b13-----------------------------|
|----------------------------------------------------------------------|
|----------------------------------------------------------------------|
|----------------------------------------------------------------------|

|-------------------------------------------------------------------------|
|-11--10--11--10----------------------------------------------------------|
|-----------------13--12--10----------------------------------------10----|
|----------------------------12--10~-----------------10-----12--10-----12-|
|-------------------------------------10b11--12--10-----12----------------|
|-------------------------------------------------------------------------|

|-------------------------------------------------11-10--10--/20--17------|
|---------13------------------------------11--10--------------------------|
|-12--10--12b13r12--10--------12--11--11------------------------------20--|
|-----------------------12~-----------------------------------------------|
|-------------------------------------------------------------------------|
|-------------------------------------------------------------------------|

|----------------------17-18-20-/22-22-22-20-20-20-18-18-18-17-17-17----|
|------------17-18-20---------------------------------------------------|
|--15-17-19-------------------------------------------------------------|
|-----------------------------------------------------------------------|
|-----------------------------------------------------------------------|
|-----------------------------------------------------------------------|

|--17------------------------------------------13h16p13-----------------|
|--20b22r20b22r20p18---------------14--13--14------------14--------16---|
|---------------------19b21r19~\-----------------------------13/15------|
|-----------------------------------------------------------------------|
|-----------------------------------------------------------------------|
|-----------------------------------------------------------------------|

|--15--16--18p16p15----------------------------------------|
|---------------------18---\---/--\---/---\---/--\---------|
|---------------------------\-/----\-/-----\-/----\--------|
|----------------------------v------v-------v------\-------|
|---------------------------------------------------\------|
|----------------------------------------------------\-----|



For those who have their guitar in E standard ( E A D G B E )

Guitar Lead:

|----------------------------------------------------------------------|
|----------------------------------------------------------------------|
|--9\7~---9b10r9--9~--7/9-10-12--12b13r12--10--12--10--8--8b10r8--10---|
|----------------------------------------------------------------------|
|----------------------------------------------------------------------|
|----------------------------------------------------------------------|

|----------------------------------------------------------------------|
|----------8---------9-----------10~---6/10----12b13--12~~--10/12--13--|
|--6h8h10----8h10h12---10h12h13-------------9--------------------------|
|----------------------------------------------------------------------|
|----------------------------------------------------------------------|
|----------------------------------------------------------------------|

|----------------------------------------------------------------------|
|--15--15b16r15--13--15--13--------------------------------------------|
|----------------------------15--15b16r15--12--/15--/15--/12--/10------|
|----------------------------------------------------------------------|
|----------------------------------------------------------------------|
|----------------------------------------------------------------------|


Guitar Solo:
|---------8----------------8--------------------11--10--8------8-------|
|------------11p8-------------11p8---------8---------------11-----11---|
|--10b11-----------10b11------------10b11------------------------------|
|----------------------------------------------------------------------|
|----------------------------------------------------------------------|
|----------------------------------------------------------------------|

|----------------------------------------------------------------------|
|--9--8--9--8----------------------------------------------------------|
|--------------11--10--8-------------------------------------8---------|
|-------------------------10--8~---------------8------10--8-----10-----|
|----------------------------------8b9--10--8-----10-------------------|
|----------------------------------------------------------------------|
Palm Mute                               .   .  .  .   .   .     .

|----------------------------------------------9--8--8--/18--15---------|
|---------11-----------------------------9--8---------------------------|
|--10--8--10b11r10--8---------10--9--9---------------------------18-----|
|----------------------10~----------------------------------------------|
|-----------------------------------------------------------------------|
|-----------------------------------------------------------------------|

|----------------------15-16-18-/20-20-20-18-18-18-16-16-16-15-15-15----|
|------------15-16-18---------------------------------------------------|
|--13-15-17-------------------------------------------------------------|
|-----------------------------------------------------------------------|
|-----------------------------------------------------------------------|
|-----------------------------------------------------------------------|

|--15------------------------------------------11h14p11-----------------|
|--18b20r18b20r18p16---------------12--11--12------------12--------14---|
|---------------------17b19r17~\-----------------------------11/13------|
|-----------------------------------------------------------------------|
|-----------------------------------------------------------------------|
|-----------------------------------------------------------------------|

|--13--14--16p14p13-----------------------------------------|
|---------------------16---\---/--\---/---\---/--\----------|
|---------------------------\-/----\-/-----\-/----\---------|
|----------------------------v------v-------v------\--------|
|---------------------------------------------------\-------|
|----------------------------------------------------\------|

Any tab requests just leave a comment
Добавлено: 19.03.2012
Другие материалы по этой песне:

Страница создана 19.03.2012
http://primanota.ru/children-of-bodom/shovel-knockout-chords.htm
Привет, Гость.
Предлагаем пройти революционный курс по гитаре.
Подарок от PrimaNota.Ru, забирай!