PrimaNota.ru - самый крупный в мире бесплатный архив песенных текстов, аккордов, табулатур и нот


Children Of Bodom - Taste Of My Scythe - текст песни, таба, бас-таба, видео

Регистрация Запомнить меня
Войти через:  Facebook Google Twitter Vk Yandex Mail.ru

Children Of Bodom - Taste Of My Scythe - текст песни, таба, бас-таба, видео

Печатать
Просмотров: 194
Авторы музыки: Alexi Laiho
Авторы текста: Alexi Laiho
                               TASTE OF MY SCYTHE
                        As recorded by Children Of Bodom
                     (From the 2001 Album FOLLOW THE REAPER)

Words and Music by Alexi Laiho / Children Of Bodom
Transcribed by Christian Palmstierna (yuudoku@PTA)

Gtr I (D G C F A D) - 'Untitled'
Gtr II (D G C F A D) - 'Untitled'
Gtr III (D G C F A D) - 'Untitled'
Gtr IV (D G C F A D) - 'Untitled'

 Intro
  Q=105
         G5            E5
 4/4
  Gtr I
         PM--|   PM|
  H    E S S S S S S    W
|--------------------|-------------------------------------------------|
|--------------------|-------------------------------------------------|
|--------------------|-------------------------------------------------|
|--------5-5-5---5-5-|--2----------------------------------------------|
|--------5-5-5---5-5-|--2----------------------------------------------|
|--------3-3-3---3-3-|--0----------------------------------------------|
|
| Gtr III
| W                     S  S  S  S  S  S  S  S  S  S  S  S  S  S  S  S
|--------------------|-12----------12-------13-12----------12----------|
|--------------------|----12-13-12----12-13-------12-13-12----12-13-12-|
|--------------------|-------------------------------------------------|
|--------------------|-------------------------------------------------|
|--------------------|-------------------------------------------------|
|--------------------|-------------------------------------------------|


                                  G5
  +H                       +E      S  S  S  S  S  S
|---------------------------------------------------|
|---------------------------------------------------|
|---------------------------------------------------|
|-(2)----------------------(2)-----5--5--5-----5--5-|
|-(2)----------------------(2)-----5--5--5-----5--5-|
|-(0)----------------------(0)-----3--3--3-----3--3-|
|
|  S   S  S  S  S  S  S  S  S   S  S  S  S  S  S  S
|-12-----------12-------13-12-----------12----------|
|-----12-13-12----12-13--------12-13-12----12-13-12-|
|---------------------------------------------------|
|---------------------------------------------------|
|---------------------------------------------------|
|---------------------------------------------------|


    E5
     W
||--------------------------------------------------|
||o-------------------------------------------------|
||--------------------------------------------------|
||---2----------------------------------------------|
||o--2----------------------------------------------|
||---0----------------------------------------------|
|
|    S  S  S  S  S  S  S  S  S  S  S  S  S  S  S  S
||--12----------12-------13-12----------12----------|
||o----12-13-12----12-13-------12-13-12----12-13-12-|
||--------------------------------------------------|
||--------------------------------------------------|
||o-------------------------------------------------|
||--------------------------------------------------|


                            PM|
  +H                        S  S  S  S  S  S  S  S
|----------------------------------------------------||
|---------------------------------------------------o||
|---------------------------------9--9--9-----9--9---||
|-(2)-----------------------------8--8--8-----8--8---||
|-(2)-----------------------------7--7--7-----7--7--o||
|-(0)-----------------------0--0---------------------||
|
|  S   S  S  S  S  S  S  S  S  S  S  S  S  S  S  S
|-12-----------12-------13-12----------12------------||
|-----12-13-12----12-13-------12-13-12----12-13-12--o||
|----------------------------------------------------||
|----------------------------------------------------||
|---------------------------------------------------o||
|----------------------------------------------------||


   W
|-------------------------------------------------|
|-------------------------------------------------|
|-------------------------------------------------|
|--2----------------------------------------------|
|--2----------------------------------------------|
|--0----------------------------------------------|
|
|  S  S  S  S  S  S  S  S  S  S  S  S  S  S  S  S
|-12----------12-------13-12----------12----------|
|----12-13-12----12-13-------12-13-12----12-13-12-|
|-------------------------------------------------|
|-------------------------------------------------|
|-------------------------------------------------|
|-------------------------------------------------|


                                 G
                            PM|
  +H                        S  S  S  S  S  S  S  S
|--------------------------------------------------|
|--------------------------------------------------|
|--------------------------------12-12-12----12-12-|
|-(2)----------------------------------------------|
|-(2)----------------------------10-10-10----10-10-|
|-(0)-----------------------0--0-------------------|
|
|  S   S  S  S  S  S  S  S  S  S  S  S  S  S  S  S
|-12-----------12-------13-12----------12----------|
|-----12-13-12----12-13-------12-13-12----12-13-12-|
|--------------------------------------------------|
|--------------------------------------------------|
|--------------------------------------------------|
|--------------------------------------------------|


  D5                             C5
   H                      +E      S  S  S  S  S  S
|--------------------------------------------------|
|--------------------------------------------------|
|--7----------------------(7)-----5--5--5-----5--5-|
|--7----------------------(7)-----5--5--5-----5--5-|
|--5----------------------(5)-----3--3--3-----3--3-|
|--------------------------------------------------|
|
|  S  S  S  S  S  S  S  S  S   S  S  S  S  S  S  S
|-10----------10-------13-10-----------10----------|
|----10-11-10----10-11--------10-11-10----10-11-10-|
|--------------------------------------------------|
|--------------------------------------------------|
|--------------------------------------------------|
|--------------------------------------------------|


  D5                             Bb5   C5
   H                      +E      S  S  Q
|--------------------------------------------------|
|--------------------------------------------------|
|--7----------------------(7)-----3-----5----------|
|--7----------------------(7)-----3-----5----------|
|--5----------------------(5)-----1-----3----------|
|--------------------------------------------------|
|
|  S  S  S  S  S  S  S  S  S   S  S  S  S  S  S  S
|-10----------10-------13-10-----------10----------|
|----10-11-10----10-11--------10-11-10----10-11-10-|
|--------------------------------------------------|
|--------------------------------------------------|
|--------------------------------------------------|
|--------------------------------------------------|


   H                      +E      S  S  S  S  S  S
|--------------------------------------------------|
|--------------------------------------------------|
|--------------------------------------------------|
|--------------------------------------------------|
|--8----------------------(8)-----7--7--7-----7--7-|
|--------------------------------------------------|
|
|  S  S  S  S  S  S  S  S  S   S  S  S  S  S  S  S
|-10----------10-------13-10-----------10----------|
|----10-11-10----10-11--------10-11-10----10-11-10-|
|--------------------------------------------------|
|--------------------------------------------------|
|--------------------------------------------------|
|--------------------------------------------------|


                                       ~~~~~~~~~~~~
   S  S  S  S  E     S  S  S  S  E     S      +E.
|--------------------------------------------------------|
|--------------------------------------------------------|
|--------------------------------------------------------|
|--------------------------------------------------------|
|--8--8--8--8--------7--7--7--7-------[9]b11==(9)r-------|
|--------------------------------------------------------|
|
|  S  S  S  S  S  S  S  S  S  S  S  S  S       S    S  S
|-10----------10-------13-10----------10-----------------|
|----10-11-10----10-11-------10-11-10---------10---11-10-|
|--------------------------------------------------------|
|--------------------------------------------------------|
|--------------------------------------------------------|
|--------------------------------------------------------|


 Pre-verse
                                          7/8
  Gtr I
  PM|       PM|      PM        PM------------|       PM|      PM|       PM--|
  S S  S  S S S  S S S S  S  S S S T T S   S S  S  S S S S  S S S  S  S S T T
|----------------------------------------|-------------------------------------|
|----------------------------------------|-------------------------------------|
|----------------------------------------|-----10--9-----7--9-----10--9--------|
|------9------------------9--------------|-------------------------------------|
|--------10------9-7--------10-----------|-------------------------------------|
|-0-0-------0-0------0-0-------0-0-0-0-0-|-0-0-------0-0------0-0-------0-0-0--|
|
| Gtr II
| PM|       PM|      PM|       PM------------|       PM|      PM        PM--|
| S S  S  S S S  S S S S  S  S S S T T S   S S  S  S S S S  S S S  S  S S T T
|----------------------------------------|-------------------------------------|
|----------------------------------------|-------------------------------------|
|----------------------------------------|-------------------------------------|
|----------------------------------------|-----11-10-----9-10-----11-10--------|
|-----10-----------------10--------------|-------------------------------------|
|-0-0----12-0-0-10-8-0-0----12-0-0-0-0-0-|-0-0-------0-0------0-0-------0-0-0--|


 4/4
  Gtr I
  PM|       PM|      PM        PM---------
  S S  S  S S S  S S S S  S  S S S T T S
|----------------------------------------|
|----------------------------------------|
|----------------------------------------|
|------9------------------9--------------|
|--------10------9-7--------10-----------|
|-0-0-------0-0------0-0-------0-0-0-0-0-|
|
| Gtr II
| PM|       PM|      PM|       PM---------
| S S  S  S S S  S S S S  S  S S S T T S
|----------------------------------------|
|----------------------------------------|
|----------------------------------------|
|----------------------------------------|
|-----10-----------------10--------------|
|-0-0----12-0-0-10-8-0-0----12-0-0-0-0-0-|


                                            2/4
 ---|       PM|     PM------------------|
  S S  S  S S S  E  S  S  S  S  S  S  S  S    S S  S  S  S  S  S  S
|------------------------------------------|---------------11-12------|
|------------------------------------------|---------13-12------------|
|------------------------------------11-12-|-11-9-11-------------11---|
|-----12-12------------------9-10-12-------|--------------------------|
|---------------12--9-10-12----------------|--------------------------|
|-0-0-------0-0----------------------------|--------------------------|
|
|---|       PM|     PM------------------|
| S S  S  S S S  E  S  S  S  S  S  S  S  S    S S  S  S  S  S  S  S
|------------------------------------------|--------------------------|
|------------------------------------------|--------------------------|
|------------------------------------------|--------------------------|
|------------------------------------10-12-|---------10--9--7---------|
|-----10-10-----------------10-12-14-------|--7-9-10----------10--9---|
|-0-0-------0-0-10-10-12-14----------------|--------------------------|


 Verse
      E5       B5      E5       C5        E5   D5      G5        D5
 4/4
  S S  E   S S E   S S  E   S S E     S S  E   Q       S  S  S S  S S  S S
|-----------------------------------|---------------------------------------|
|-----------------------------------|---------------------------------------|
|--------------4----------------5---|----------7------------------7-7--7-7--|
|------2-------4--------2-------5---|------2---7-------5--5--5-5--7-7--7-7--|
|------2-------2--------2-------3---|------2---5-------5--5--5-5--5-5--5-5--|
|-0-0--0---0-0-----0-0--0---0-0-----|-0-0--0-----------3--3--3-3------------|
|
| PM|      PM|     PM|      PM|       PM|        PM--|
| S S  S S S S S S S S  S S S S S S   S S  S S S S S S S  S  S S  S S  S S
|-----------------------------------|---------------------------------------|
|-----------------------------------|---------------------------------------|
|-----------------------------------|---------------------------------------|
|-----------------------------------|------------------9----10-9------------|
|-----10p7-----7p5-----10p7-----7p3-|-----10p7S5-5-5-5---10------12-9-10-9--|
|-0-0------0-0-----0-0------0-0-----|-0-0-----------------------------------|


      E5       B5      E5       C5        E5   D5
                                                       PM------------|
                                                                       |--3--|
  S S  E   S S E   S S  E   S S E     S S  E   Q       T T T T T T T T E  E  E
|-----------------------------------|------------------------------------------|
|-----------------------------------|------------------------------------------|
|--------------4----------------5---|----------7-----------------------9-12-11-|
|------2-------4--------2-------5---|------2---7-------------------------------|
|------2-------2--------2-------3---|------2---5-------7-7-7-7-7-7-7-7---------|
|-0-0--0---0-0-----0-0--0---0-0-----|-0-0--0-----------------------------------|
|
| PM|      PM|     PM|      PM|       PM|        PM------------------|
|                                                                      |--3--|
| S S  S S S S S S S S  S S S S S S   S S  S S S S S S T T T T T T T T E  E  E
|-----------------------------------|------------------------------------------|
|-----------------------------------|------------------------------------------|
|-----------------------------------|------------------------------------------|
|-----------------------------------|------------------------------------------|
|-----10p7-----7p5-----10p7-----7p3-|-----10p7S5-5-5-5-7-7-7-7-7-7-7-7-7-10--9-|
|-0-0------0-0-----0-0------0-0-----|-0-0--------------------------------------|


      E5       B5      E5       C5        E5   D5      G5        D5
  S S  E   S S E   S S  E   S S E     S S  E   Q       S  S  S S  S S  S S
|-----------------------------------|--------------------------------------|
|-----------------------------------|--------------------------------------|
|--------------4----------------5---|----------7------------------7-7--7-7-|
|------2-------4--------2-------5---|------2---7-------5--5--5-5--7-7--7-7-|
|------2-------2--------2-------3---|------2---5-------5--5--5-5--5-5--5-5-|
|-0-0--0---0-0-----0-0--0---0-0-----|-0-0--0-----------3--3--3-3-----------|
|
| PM|      PM|     PM|      PM|       PM|        PM--|
| S S  S S S S S S S S  S S S S S S   S S  S S S S S S S  S  S S  S S  S S
|-----------------------------------|--------------------------------------|
|-----------------------------------|--------------------------------------|
|-----------------------------------|--------------------------------------|
|-----------------------------------|------------------9----10-9-----------|
|-----10p7-----7p5-----10p7-----7p3-|-----10p7S5-5-5-5---10------12-9-10-9-|
|-0-0------0-0-----0-0------0-0-----|-0-0----------------------------------|


      E5       B5      E5       C5
  S S  E   S S E   S S  E   S S E
|-----------------------------------|
|-----------------------------------|
|--------------4----------------5---|
|------2-------4--------2-------5---|
|------2-------2--------2-------3---|
|-0-0--0---0-0-----0-0--0---0-0-----|
|
| PM|      PM|     PM|      PM|
| S S  S S S S S S S S  S S S S S S
|-----------------------------------|
|-----------------------------------|
|-----------------------------------|
|-----------------------------------|
|-----10p7-----7p5-----10p7-----7p3-|
|-0-0------0-0-----0-0------0-0-----|


      E5   D5
                                      2/4
                    |--3--|  |--3--|
  S S  E   Q        E  E  E  E  E  E    E  E Q
|------------------------------------|-----------|
|------------------------------------|-----------|
|----------7-----------9--8--9----11-|-13--------|
|------2---7--------9-----------7----|----12-----|
|------2---5-------------------------|-----------|
|-0-0--0-----------------------------|-----------|
|
| PM|        PM--|
|                   |--3--|  |--3--|
| S S  S S S S S S  E  E  E  E  E  E    E  E Q
|------------------------------------|-----------|
|------------------------------------|-----------|
|---------------------12-11-------11-|-13--------|
|------------------14----------14----|----12-----|
|-----10p7S5-5-5-5----------14-------|-----------|
|-0-0--------------------------------|-----------|


   Pre-chorus
   4/4
    |----6----| |----6----| |----6----| |----6----|
    S S S S S S S S S S S S S S S S S S S S S S S S
||--------------------------------------------------|
||o-------------------------------------------------|
||--------------------------------------------------|
||--7-7-7-7-7-7-6-6-6-6-6-6-------------------------|
||o-------------------------5-5-5-5-5-5-8-8-8-8-8-8-|
||--------------------------------------------------|
|
|   |----6----| |----6----| |----6----| |----6----|
|   S S S S S S S S S S S S S S S S S S S S S S S S
||--------------------------------------------------|
||o-------------------------------------------------|
||--------------------------------------------------|
||--------------------------------------------------|
||o-8-8-8-8-8-8-7-7-7-7-7-7-------------5-5-5-5-5-5-|
||--------------------------5-5-5-5-5-5-------------|


 1.                                 2.
              F  BbD5
                                    2/4
  |----6----|        |----6----|     |----6----|
  S S S S S S Q  E E S S S S S S     S S S S S S Q
|---------------------------------||----------------|
|--------------------------------o||----------------|
|------------------7--------------||----------------|
|----------------8-7--------------||----------------|
|-7-7-7-7-7-7-8--8-5-5-5-5-5-5-5-o||-7-7-7-7-7-7-8--|
|----------------6----------------||----------------|
|
| |----6----|        |----6----|     |----6----|
| S S S S S S Q  E E S S S S S S     S S S S S S Q
|---------------------------------||----------------|
|--------------------------------o||----------------|
|-------------7----7--------------||-------------7--|
|-------------7--8-7--------------||-------------7--|
|-3-3-3-3-3-3-5--8-5-5-5-5-5-5-5-o||-3-3-3-3-3-3-5--|
|----------------6----------------||----------------|


    D5 E5                     G5    D5    E5    B5
   4/4
     E  E  E  E  E  E  E  E    E  E  E  E  E  E  E  E
||--------------------------|--------------------------||
||o-------------------------|-------------------------o||
||---7--9--9--9--9--9--9--9-|--------7--7--9--9--------||
||---7--9--9--9--9--9--9--9-|--5--5--7--7--9--9--9--9--||
||o--5--7--7--7--7--7--7--7-|--5--5--5--5--7--7--9--9-o||
||--------------------------|--3--3--------------7--7--||
|
|    E  E  E  E  E  E  E  E    E  E  E  E  E  E  E  E
||-----------------19-20-17-|-19-22-17-----------------||
||o-17-20-19----17----------|----------19-20-17-19----o||
||-----------19-------------|----------------------19--||
||--------------------------|--------------------------||
||o-------------------------|-------------------------o||
||--------------------------|--------------------------||


                D5                C5
                                              PM---------------|
   |----6-----| |-3-| |----6----|  |--3--|    |------6---------|
   S  S S S S S E E E S S S S S S  E  E  E    E  E  E  E  E  E  E  E  E E
|------------------------------------------|-------------------------------|
|------------------------------------------|-------------12----------------|
|---------------7-7-7----------------------|----------12----14-12----------|
|---------------7-7-7-------------10-10-10-|-------14-------------12-14----|
|--7--7-7-7-7-7-5-5-5-7-7-7-7-7-7-10-10-10-|-10-14-------------------------|
|----------------------------------8--8--8-|-------------------------------|
|
|                                             PM---------------|
|               |-3-|              |--3--|    |------6---------|
|  Q            E E E Q            E  E  E    E  E  E  E  E  E  E  E  E E
|------------------------------------------|-------------------------------|
|-17\--------------------------------------|-------------------------------|
|------------------------------------------|-------------12-11-------------|
|------------------------------------------|----------14--------9-10--9----|
|---------------9-9-9--------------7--7--7-|-------14----------------------|
|------------------------------------------|-12-12-------------------------|


                                      1.
    C5                   G5  D5        C5                      D5      E5
     H                    Q   Q         H                       Q      Q
||-----------------------------------|-------------------------------------||
||o----------------------------------|------------------------------------o||
||---5------------------------7------|--5-----------------------7------9---||
||---5--------------------5---7------|--5-----------------------7------9---||
||o--3--------------------5---5------|--3-----------------------5------7--o||
||------------------------3----------|-------------------------------------||
|
|    S  S S  S S  S S  S  Q   S S  E    S  S  S  S  S  S  S  S  S S  E Q
||-----------------------------------|-------------------------------------||
||o----------------------------------|-10-13-12-10----12-10---------------o||
||--12-11-9----9----9-11-12--11-9----|-------------12-------12-11-9----9---||
||----------12---12---------------12-|------------------------------12-----||
||o----------------------------------|------------------------------------o||
||-----------------------------------|-------------------------------------||


 2.
  C5          G5          D5      E5
   Q           Q           Q       Q
|----------------------------------------|
|----------------------------------------|
|--5-----------------------7-------9-----|
|--5-----------5-----------7-------9-----|
|--3-----------5-----------5-------7-----|
|--------------3-------------------------|
|
|                                  ~~~
|  S  S  S  S  S  S  S  S  S S  E  Q
|----------------------------------------|
|-10-13-12-10----12-10-------------------|
|-------------12-------12-11-9----[9]----|
|------------------------------12--------|
|----------------------------------------|
|----------------------------------------|


   Chorus
    C5          A5          E5    D5
     Q           Q           Q     Q
||-----------------------------------------|
||o----------------------------------------|
||---5-----------------------9-----7-------|
||---5-----------7-----------9-----7-------|
||o--3-----------7-----------7-----5-------|
||---------------5-------------------------|
|
|    S  S  S  S  S  S  S  S  E  E  S  S  E
||-----------------------------------------|
||o----------------------------------------|
||--12-11--9-----9-----9-11-12-12-11--9----|
||-----------12----12-------------------12-|
||o----------------------------------------|
||-----------------------------------------|
|
|   Gtr IV
|    S  S  S  S  S  S  S  S  Q     S  S  E
||-----------------------------------15-14-|
||o-17-15----------15-17-19-17----15-------|
||--------17-16-17-------------------------|
||-----------------------------------------|
||o----------------------------------------|
||-----------------------------------------|


 1.                                       2.
  C5          E5          D5       E5      C5          D5          E5 D5 E5 G5
   Q           Q           Q        Q       Q           Q           E  E  E  E
|---------------------------------------||-------------------------------------|
|--------------------------------------o||-------------------------------------|
|--5-----------9-----------7--------9---||--5-----------7-----------9--7--9-12-|
|--5-----------9-----------7--------9---||--5-----------7-----------9--7--9-12-|
|--3-----------7-----------5--------7--o||--3-----------5-----------7--5--7-10-|
|---------------------------------------||-------------------------------------|
|
|  S  S  S  S  S  S  S  S  S  S  E  Q       S  S  S  S  S  S  S  S  E  E  E  E
|---------------------------------------||-------------------------------------|
|-10-13-12-10----12-10-----------------o||-10-13-12-10----12-10----------------|
|-------------12-------11-12-11-----9---||-------------12-------11--9--7--9-12-|
|-------------------------------12------||--------------------------9--7--9-12-|
|--------------------------------------o||--------------------------7--5--7-10-|
|---------------------------------------||-------------------------------------|
|
|  S  S  S  S  S  S  S  S  S  S  E  Q       S  S  S  S  S  S  S  S  E  E  E  E
|-14-17-15-14----15-14----14------------||-14-17-15-14----15-14-------------14-|
|-------------17-------15----17-15-17--o||-------------17-------15-17-15-17----|
|---------------------------------------||-------------------------------------|
|---------------------------------------||-------------------------------------|
|--------------------------------------o||-------------------------------------|
|---------------------------------------||-------------------------------------|


 Pre-verse
                                             7/8
  Gtr I
    PM-|       PM|      PM        PM------------|       PM|      PM|       PM|
    S  S  S  S S S  S S S S  S  S S S T T S   S S  S  S S S S  S S S  S  S S S
|-------------------------------------------|----------------------------------|
|-------------------------------------------|----------------------------------|
|-------------------------------------------|-----10--9-----7--9-----10--9-----|
|---------9------------------9--------------|----------------------------------|
|-----------10------9-7--------10-----------|----------------------------------|
|---0--0-------0-0------0-0-------0-0-0-0-0-|-0-0-------0-0------0-0-------0-0-|
|
| Gtr II
|   PM-|       PM|      PM        PM------------|       PM|      PM        PM|
|   S  S  S  S S S  S S S S  S  S S S T T S   S S  S  S S S S  S S S  S  S S S
|-------------------------------------------|----------------------------------|
|-------------------------------------------|----------------------------------|
|-------------------------------------------|----------------------------------|
|-------------------------------------------|-----11-10-----9-10-----11-10-----|
|--------10-----------------10--------------|----------------------------------|
|---0--0----12-0-0-10-8-0-0----12-0-0-0-0-0-|-0-0-------0-0------0-0-------0-0-|
|
|   H                   H                     H                  Q         E
|-/15\--------------------------------------|----------------------------------|
|-------------------------------------------|----------------------------------|
|-------------------------------------------|----------------------------------|
|-------------------------------------------|----------------------------------|
|-------------------------------------------|----------------------------------|
|-------------------------------------------|----------------------------------|


 4/4
  Gtr I
  PM|       PM|      PM        PM---------
  S S  S  S S S  S S S S  S  S S S T T S
|----------------------------------------|
|----------------------------------------|
|----------------------------------------|
|------9------------------9--------------|
|--------10------9-7--------10-----------|
|-0-0-------0-0------0-0-------0-0-0-0-0-|
|
| Gtr II
| PM|       PM|      PM|       PM---------
| S S  S  S S S  S S S S  S  S S S T T S
|----------------------------------------|
|----------------------------------------|
|----------------------------------------|
|----------------------------------------|
|-----10-----------------10--------------|
|-0-0----12-0-0-10-8-0-0----12-0-0-0-0-0-|


                                            2/4
 ---|       PM|     PM------------------|
  S S  S  S S S  E  S  S  S  S  S  S  S  S    S S  S  S  S  S  S  S
|------------------------------------------|---------------11-12------|
|------------------------------------------|---------13-12------------|
|------------------------------------11-12-|-11-9-11-------------11---|
|-----12-12------------------9-10-12-------|--------------------------|
|---------------12--9-10-12----------------|--------------------------|
|-0-0-------0-0----------------------------|--------------------------|
|
|---|       PM|     PM------------------|
| S S  S  S S S  E  S  S  S  S  S  S  S  S    S S  S  S  S  S  S  S
|------------------------------------------|--------------------------|
|------------------------------------------|--------------------------|
|------------------------------------------|--------------------------|
|------------------------------------10-12-|---------10--9--7---------|
|-----10-10-----------------10-12-14-------|--7-9-10----------10--9---|
|-0-0-------0-0-10-10-12-14----------------|--------------------------|


 Verse
      E5       B5      E5       C5        E5   D5      G5        D5
 4/4
  S S  E   S S E   S S  E   S S E     S S  E   Q       S  S  S S  S S  S S
|-----------------------------------|---------------------------------------|
|-----------------------------------|---------------------------------------|
|--------------4----------------5---|----------7------------------7-7--7-7--|
|------2-------4--------2-------5---|------2---7-------5--5--5-5--7-7--7-7--|
|------2-------2--------2-------3---|------2---5-------5--5--5-5--5-5--5-5--|
|-0-0--0---0-0-----0-0--0---0-0-----|-0-0--0-----------3--3--3-3------------|
|
| PM|      PM|     PM|      PM|       PM|        PM--|
| S S  S S S S S S S S  S S S S S S   S S  S S S S S S S  S  S S  S S  S S
|-----------------------------------|---------------------------------------|
|-----------------------------------|---------------------------------------|
|-----------------------------------|---------------------------------------|
|-----------------------------------|------------------9----10-9------------|
|-----10p7-----7p5-----10p7-----7p3-|-----10p7S5-5-5-5---10------12-9-10-9--|
|-0-0------0-0-----0-0------0-0-----|-0-0-----------------------------------|


      E5       B5      E5       C5        E5   D5
                                                       PM------------|
                                                                       |--3--|
  S S  E   S S E   S S  E   S S E     S S  E   Q       T T T T T T T T E  E  E
|-----------------------------------|------------------------------------------|
|-----------------------------------|------------------------------------------|
|--------------4----------------5---|----------7-----------------------9-12-11-|
|------2-------4--------2-------5---|------2---7-------------------------------|
|------2-------2--------2-------3---|------2---5-------7-7-7-7-7-7-7-7---------|
|-0-0--0---0-0-----0-0--0---0-0-----|-0-0--0-----------------------------------|
|
| PM|      PM|     PM|      PM|       PM|        PM------------------|
|                                                                      |--3--|
| S S  S S S S S S S S  S S S S S S   S S  S S S S S S T T T T T T T T E  E  E
|-----------------------------------|------------------------------------------|
|-----------------------------------|------------------------------------------|
|-----------------------------------|------------------------------------------|
|-----------------------------------|------------------------------------------|
|-----10p7-----7p5-----10p7-----7p3-|-----10p7S5-5-5-5-7-7-7-7-7-7-7-7-7-10--9-|
|-0-0------0-0-----0-0------0-0-----|-0-0--------------------------------------|


      E5       B5      E5       C5        E5   D5      G5        D5
  S S  E   S S E   S S  E   S S E     S S  E   Q       S  S  S S  S S  S S
|-----------------------------------|--------------------------------------|
|-----------------------------------|--------------------------------------|
|--------------4----------------5---|----------7------------------7-7--7-7-|
|------2-------4--------2-------5---|------2---7-------5--5--5-5--7-7--7-7-|
|------2-------2--------2-------3---|------2---5-------5--5--5-5--5-5--5-5-|
|-0-0--0---0-0-----0-0--0---0-0-----|-0-0--0-----------3--3--3-3-----------|
|
| PM|      PM|     PM|      PM|       PM|        PM--|
| S S  S S S S S S S S  S S S S S S   S S  S S S S S S S  S  S S  S S  S S
|-----------------------------------|--------------------------------------|
|-----------------------------------|--------------------------------------|
|-----------------------------------|--------------------------------------|
|-----------------------------------|------------------9----10-9-----------|
|-----10p7-----7p5-----10p7-----7p3-|-----10p7S5-5-5-5---10------12-9-10-9-|
|-0-0------0-0-----0-0------0-0-----|-0-0----------------------------------|


      E5       B5      E5       C5        E5   D5                      G5 F#5E5
                                                       PM------------|
                                                                        |-3--|
  S S  E   S S E   S S  E   S S E     S S  E   Q       T T T T T T T T  E  E E
|-----------------------------------|------------------------------------------|
|-----------------------------------|------------------------------------------|
|--------------4----------------5---|----------7-----------------------12-11-9-|
|------2-------4--------2-------5---|------2---7-----------------------12-11-9-|
|------2-------2--------2-------3---|------2---5-------7-7-7-7-7-7-7-7-10--9-7-|
|-0-0--0---0-0-----0-0--0---0-0-----|-0-0--0-----------------------------------|
|
| PM|      PM|     PM|      PM|       PM|        PM------------------|
|                                                                       |-3--|
| S S  S S S S S S S S  S S S S S S   S S  S S S S S S T T T T T T T T  E  E E
|-----------------------------------|------------------------------------------|
|-----------------------------------|------------------------------------------|
|-----------------------------------|----------------------------------12-11-9-|
|-----------------------------------|----------------------------------12-11-9-|
|-----10p7-----7p5-----10p7-----7p3-|-----10p7S5-5-5-5-7-7-7-7-7-7-7-7-10--9-7-|
|-0-0------0-0-----0-0------0-0-----|-0-0--------------------------------------|


 Keyboard Solo
    D5E5
  Gtr I
    E  E  T T    T    T  T T    T    T T  T  T  T  T T    T    T  T T    T    T  T T    T    T
|------------------------------------------------------------------------------------------------|
|------------------------------------------------------------------------------------------------|
|------------------------------------------------------------------------------------------------|
|---7--9-----------------------------------------------------------------------------------------|
|---5--7--7-7----7----7--7-7----7----7-7--7--7--7--7-7----7----7--5-5----5----5--5-5----5----5---|
|------------------------------------------------------------------------------------------------|
|
| Gtr IV
|         |----3----|    |----3----|               |----3----|    |----3----|    |----3----|
| a E  E  S    S    S    S    S    S   T  T  T  T  S    S    S    S    S    S    S    S    S
|----------------------------------------------------------------12---14---15---14---12----------|
|----------------------------------------------10-12---13---15----------------------------15-----|
|-7-9-12-11---12---11---12---11--------9-11-12---------------------------------------------------|
|---------------------------------12-------------------------------------------------------------|
|------------------------------------------------------------------------------------------------|
|------------------------------------------------------------------------------------------------|


                                                                                      E5
   T T    T    T  T T    T    T  T  T  T  T  T  T  T  T  T T    T    T  T T    T    T  Q
|------------------------------------------------------------------------------------------|
|------------------------------------------------------------------------------------------|
|------------------------------------------------------------------------------------------|
|--------------------------------------------------------------------------------------9---|
|--3-3----3----3--3-3----3----3--7--7--7--7--7--7--7--7--5-5----5----5--5-5----5----5--7---|
|------------------------------------------------------------------------------------------|
|
|  |----3----|    |----3----|                            |----3----|    |----3----|
|  S    S    S    S    S    S    T  T  T  T  T  T  T  T  S    S    S    S    S    S    Q
|-12---14---15---19---20---17---------------------------17---20---19-----------------------|
|-------------------------------19-20-19-17----17-19-20----------------20---19--------17---|
|-------------------------------------------19-----------------------------------19--------|
|------------------------------------------------------------------------------------------|
|------------------------------------------------------------------------------------------|
|------------------------------------------------------------------------------------------|


  D5       E5
   E        E        T T    T    T  T T    T    T  T T    T    T  T T    T    T  T T    T   T  T T    T    T
|-----------------------------------------------------------------------------------------------------------------|
|-----------------------------------------------------------------------------------------------------------------|
|-----------------------------------------------------------------------------------------------------------------|
|--7--------9-----------------------------------------------------------------------------------------------------|
|--5--------7--------7-7----7----7--7-7----7----7--7-7----7----7--7-7----7----7--5-5----5----5--5-5----5----5-----|
|-----------------------------------------------------------------------------------------------------------------|
|
|  |--3--|  |--3--|  |----3----|    |----3----|    |----3----|    |----3----|    
   |------3-------|
|  S  S  S  S  S  S  S    S    S    S    S    S    S    S    S    S    S    S    S    S  
 S    S    S    T    T
|-19-20-19-------19-22---20---19-------------19---22---20---19-------------19---22---20---19----------------------|
|----------20-22-------------------20---22-----------------------20---22-----------------------19---20---19-------|
|-------------------------------------------------------------------------------------------------------------19--|
|-----------------------------------------------------------------------------------------------------------------|
|-----------------------------------------------------------------------------------------------------------------|
|-----------------------------------------------------------------------------------------------------------------|


                                                                                E5
  Gtr I
   T  T  T  T  T  T  T  T  T  T  T  T  T  T  T  T  T T    T    T  T T    T    T  Q
|------------------------------------------------------------------------------------------------------------|
|------------------------------------------------------------------------------------------------------------|
|------------------------------------------------------------------------------------------------------------|
|--------------------------------------------------------------------------------9---------------------------|
|--3--3--3--3--3--3--3--3--7--7--7--7--7--7--7--7--5-5----5----5--5-5----5----5--7---------------------------|
|------------------------------------------------------------------------------------------------------------|
|
| Gtr II
|  H                                               Q                             Q       
               a
|------------------------------------------------------------------------------------------------------------|
|--------------------------------------------------------------------------------5S=====================17---|
|------------------------------------------------------------------------------------------------------------|
|------------------------------------------------------------------------------------------------------------|
|------------------------------------------------------------------------------------------------------------|
|------------------------------------------------------------------------------------------------------------|
|
| Gtr IV
|                                                  |----3----|    |----3----|
|  T  T  T  T  T  T  T  T  T  T  T  T  T  T  T  T  S    S    S    S    S    S    T  T  T  T  T  T  T  T
|------------------------------------------------------------------------------------------------------------|
|-19-17----17------------------------------------------------------------------------------------------------|
|-------17----19-16-19-16----17-16----------------19---17---16-----------------------------------------------|
|-------------------------19-------19-17-16-17-19----------------17---16---17---17-16----14-16-17-19-21------|
|-------------------------------------------------------------------------------------17---------------------|
|------------------------------------------------------------------------------------------------------------|


   Pre-chorus
    D5 E5                     G5    D5    E5    B5
   4/4
     E  E  E  E  E  E  E  E    E  E  E  E  E  E  E  E
||--------------------------|--------------------------||
||o-------------------------|-------------------------o||
||---7--9--9--9--9--9--9--9-|--------7--7--9--9--------||
||---7--9--9--9--9--9--9--9-|--5--5--7--7--9--9--9--9--||
||o--5--7--7--7--7--7--7--7-|--5--5--5--5--7--7--9--9-o||
||--------------------------|--3--3--------------7--7--||
|
|    E  E  E  E  E  E  E  E    E  E  E  E  E  E  E  E
||-----------------19-20-17-|-19-22-17-----------------||
||o-17-20-19----17----------|----------19-20-17-19----o||
||-----------19-------------|----------------------19--||
||--------------------------|--------------------------||
||o-------------------------|-------------------------o||
||--------------------------|--------------------------||
|
|    E  E  E  E  E  E  E  E    E  E  E  E  E  E  E  E
||-----------------19-20-17-|-19-22-17-----------------||
||o-17-20-19----17----------|----------19-20-17-19----o||
||-----------19-------------|----------------------19--||
||--------------------------|--------------------------||
||o-------------------------|-------------------------o||
||--------------------------|--------------------------||


                                     E5                         C#5
   |---------------6---------------|  |--3--|  |------6-------|  |--3--|
   S    S         S   S     S      S  E  E  E  S  S  S  S  S  S  E  E  E
|-------------------------------------------------------------------------|
|-------------------------------------------------------------------------|
|-------------------------------------9--9--9-----------------------------|
|-------------------------------------9--9--9-------------------11-11-11--|
|--9----9---------9---9-----9------9--7--7--7-12-12-12-12-12-12-11-11-11--|
|----------------------------------------------------------------9--9--9--|
|
|                                     |--3--|                    |--3--|
|  S       +S        +S        +S     E  E  E  Q                 E  E  E
|-------------------------------------------------------------------------|
|-19b21r==(19)b21r==(19)b21r==(19)----------------------------------------|
|-------------------------------------------------------------------------|
|-------------------------------------------------------------------------|
|------------------------------------11-11-11--------------------8--8--8--|
|-------------------------------------------------------------------------|
|
|  W
|-------------------------------------------------------------------------|
|-------------------------------------------------------------------------|
|-------------------------------------------------------------------------|
|-------------------------------------------------------------------------|
|-------------------------------------------------------------------------|
|-------------------------------------------------------------------------|


  Gtr I
   T           T
   |--------8:6---------|  |--3--|  |--3--|      |--3--|
   T  T  T  T  T  T  T  T  S  S  S  S  S  S   S  E  E  E  S     +S       +E
|----------------------------------19-22-19-----------16-19b21r(19)b21==(19)r-|
|-18p12h13p12h18p12h13p12-------21----------/21----14-------------------------|
|-------------------------19-22-----------------13----------------------------|
|-----------------------------------------------------------------------------|
|-----------------------------------------------------------------------------|
|-----------------------------------------------------------------------------|


                                      1.
    C5                   G5  D5        C5                      D5      E5
     H                    Q   Q         H                       Q      Q
||-----------------------------------|-------------------------------------||
||o----------------------------------|------------------------------------o||
||---5------------------------7------|--5-----------------------7------9---||
||---5--------------------5---7------|--5-----------------------7------9---||
||o--3--------------------5---5------|--3-----------------------5------7--o||
||------------------------3----------|-------------------------------------||
|
|   Gtr II
|    S  S S  S S  S S  S  Q   S S  E    S  S  S  S  S  S  S  S  S S  E Q
||-----------------------------------|-------------------------------------||
||o----------------------------------|-10-13-12-10----12-10---------------o||
||--12-11-9----9----9-11-12--11-9----|-------------12-------12-11-9----9---||
||----------12---12---------------12-|------------------------------12-----||
||o----------------------------------|------------------------------------o||
||-----------------------------------|-------------------------------------||


 2.
  C5          G5          D5                E5
   Q           Q           Q                 Q
|-------------------------------------------------|
|-------------------------------------------------|
|--5-----------------------7-----------------9----|
|--5-----------5-----------7-----------------9----|
|--3-----------5-----------5-----------------7----|
|--------------3----------------------------------|
|
|                                            ~~
|                          |--3--|  |--3--|
|  S  S  S  S  S  S  S  S  S  S  S  S  S  S  Q
|-------------------------------------------------|
|-10-13-12-10----12-10-------------12-13-15-17----|
|-------------12-------11-11-12-14----------------|
|-------------------------------------------------|
|-------------------------------------------------|
|-------------------------------------------------|


   Chorus
    C5          A5          E5    D5
     Q           Q           Q     Q
||-----------------------------------------|
||o----------------------------------------|
||---5-----------------------9-----7-------|
||---5-----------7-----------9-----7-------|
||o--3-----------7-----------7-----5-------|
||---------------5-------------------------|
|
|    S  S  S  S  S  S  S  S  E  E  S  S  E
||-----------------------------------------|
||o----------------------------------------|
||--12-11--9-----9-----9-11-12-12-11--9----|
||-----------12----12-------------------12-|
||o----------------------------------------|
||-----------------------------------------|
|
|   Gtr IV
|    S  S  S  S  S  S  S  S  Q     S  S  E
||-----------------------------------15-14-|
||o-17-15----------15-17-19-17----15-------|
||--------17-16-17-------------------------|
||-----------------------------------------|
||o----------------------------------------|
||-----------------------------------------|


 1.                                       2.
  C5          E5          D5       E5      E5 F#5 G5  B5 G5 F#5
   Q           Q           Q        Q      E.  E.  Q   E  E  E
|---------------------------------------||----------------------|
|--------------------------------------o||----------------------|
|--5-----------9-----------7--------9---||------------11--------|
|--5-----------9-----------7--------9---||-9--11--12---9-12-11--|
|--3-----------7-----------5--------7--o||-7---9--10-----10--9--|
|---------------------------------------||----------------------|
|
|  S  S  S  S  S  S  S  S  S  S  E  Q      E.  E.  Q   E  E  E
|---------------------------------------||----------------------|
|-10-13-12-10----12-10-----------------o||----------------------|
|-------------12-------11-12-11-----9---||----------------------|
|-------------------------------12------||-------------9--------|
|--------------------------------------o||-7---9--10-----10--9--|
|---------------------------------------||----------------------|
|
|  S  S  S  S  S  S  S  S  S  S  E  Q      W
|-14-17-15-14----15-14----14------------||----------------------|
|-------------17-------15----17-15-17--o||----------------------|
|---------------------------------------||----------------------|
|---------------------------------------||----------------------|
|--------------------------------------o||----------------------|
|---------------------------------------||----------------------|


 Guitar Solo
  E5
   Q            Q.                 S  S  S  S  S  S
|---------------------------------------------------|
|---------------------------------------------------|
|--9\------------------------------9--9--9-----9--9-|
|--9\------------------------------9--9--9-----9--9-|
|--7\------------------------------7--7--7-----7--7-|
|---------------------------------------------------|
|
|  Q            Q.                 S  S  S  S  S  S
|---------------------------------------------------|
|---------------------------------------------------|
|---------------------------------------------------|
|----------------------------------8--8--8-----8--8-|
|--7\-----------------------------------------------|
|---------------------------------------------------|
|
| Gtr III
|  S   S  S  S  S   S  S  S  S  S  S  S  S  S  S  S
|-12-----------12--------13-12----------12----------|
|-----12-13-12-----12-13-------12-13-12----12-13-12-|
|---------------------------------------------------|
|---------------------------------------------------|
|---------------------------------------------------|
|---------------------------------------------------|


                                  D#5
   Q           Q.                  S  S  S  S  S  S
|---------------------------------------------------|
|---------------------------------------------------|
|----------------------------------8--8--8-----8--8-|
|--2-------------------------------8--8--8-----8--8-|
|--2-------------------------------6--6--6-----6--6-|
|--0------------------------------------------------|
|
|  Q           E      E     Q            Q
|---------------------------------------------------|
|---------------------------------------------------|
|---------------------------------------------------|
|---------------------0s===10\----------------------|
|--7------------------------------------------------|
|---------------------------------------------------|
|
|  S  S  S  S  S   S  S  S  S   S  S  S  S  S  S  S
|-12----------12--------13-12-----------12----------|
|----12-13-12-----12-13--------12-13-12----12-13-12-|
|---------------------------------------------------|
|---------------------------------------------------|
|---------------------------------------------------|
|---------------------------------------------------|


  D5                          C5
   H                   +E      S  S  S  S  S  S
|-----------------------------------------------|
|-----------------------------------------------|
|--7-------------------(7)-----5--5--5-----5--5-|
|--7-------------------(7)-----5--5--5-----5--5-|
|--5-------------------(5)-----3--3--3-----3--3-|
|-----------------------------------------------|
|
|  S  S  S  S  E  S  S  S   S  S  S  S  S  S  S
|-------15-17-18-17-15--------------20----------|
|-15-18--------------------18-17-18----18-17-18-|
|-----------------------------------------------|
|----------------------19-----------------------|
|-----------------------------------------------|
|-----------------------------------------------|


  D5                                          Bb5   C5
   H                                   +E      e     Q
|---------------------------------------------------------------|
|---------------------------------------------------------------|
|--7-----------------------------------(7)----------------------|
|--7-----------------------------------(7)-----8----10----------|
|--5-----------------------------------(5)-----8----10----------|
|----------------------------------------------6-----8----------|
|
|  \1.5/   \1.5/  /1\   /1\  /1\   /1\
|  S      +E      S    +E    S    +E        S  S  S  S  S  S  S
|-25-----(25)----22---(22)--20---(20)---------------20-22-------|
|---------------------------------------------18-20-------18-17-|
|------------------------------------------17-------------------|
|---------------------------------------------------------------|
|---------------------------------------------------------------|
|---------------------------------------------------------------|


  D5                         C5
   H                +E        S  S  S S  S  S
|---------------------------------------------|
|---------------------------------------------|
|--7----------------(7)-------5--5--5----5--5-|
|--7----------------(7)-------5--5--5----5--5-|
|--5----------------(5)-------3--3--3----3--3-|
|---------------------------------------------|
|
|  S  S  S  S  S  Q      +S   S  S  E    S  S
|-------------------------------17-18---17----|
|-------------18-18-----(18)-18------------18-|
|----------19---------------------------------|
|-------20------------------------------------|
|-17-20---------------------------------------|
|---------------------------------------------|


  D5                                         Bb5   C5
   H                                  +E      e     Q
|--------------------------------------------------------------|
|--------------------------------------------------------------|
|--7----------------------------------(7)----------------------|
|--7----------------------------------(7)-----8----10----------|
|--5----------------------------------(5)-----8----10----------|
|---------------------------------------------6-----8----------|
|
|  |--3--|  |--3--|  |--3--|  |--3--|
|  S  S  S  S  S  S  S  S  S  S  S  S  S   S  S  S  S  S  S  S
|-22-20-18--------------------------------------------22s19-17-|
|----------18-17-15--------------------------------------------|
|-------------------17-15-14-----------------------17----------|
|----------------------------17-15-14-----19----17-------------|
|-------------------------------------17-----17----------------|
|--------------------------------------------------------------|


  E5                                               D5
   H                                        +E      S  S  S  S   S  S
|---------------------------------------------------------------------|
|---------------------------------------------------------------------|
|--9----------------------------------------(9)-----7--7--7------7--7-|
|--9----------------------------------------(9)-----7--7--7------7--7-|
|--7----------------------------------------(7)-----5--5--5------5--5-|
|---------------------------------------------------------------------|
|
|                          |--3--|  |--3--|
|  T  T  T  T  T  T  T  T  S  S  S  S  S  S  S   S  S  S  S  S   S  S
|-20-19-17------------------------------------------------------------|
|----------20-19-17-20-19-17-----------------------------17--------19-|
|----------------------------19-17-19-17------------------------------|
|----------------------------------------19-17-----16-17----17-/19----|
|-----------------------------------------------17--------------------|
|---------------------------------------------------------------------|


  E5                                                  C5          D5
   H                                        +E         e           Q
|--------------------------------------------------------------------------|
|--------------------------------------------------------------------------|
|--9----------------------------------------(9)--------5-----------7-------|
|--9----------------------------------------(9)--------5-----------7-------|
|--7----------------------------------------(7)--------3-----------5-------|
|--------------------------------------------------------------------------|
|
|  |--3--|                          |--3--|  |--3---|
|  S  S  S  T  T  T  T  T  T  T  T  S  S  S  S   S  S  T  T  T  T  E  S  S
|-------------17-19-20-19-17-----------------------------------------------|
|-19-17-19-20----------------20-19-20-19-17--------------------------------|
|-------------------------------------------19--16-19-17-16----------------|
|-----------------------------------------------------------19-17-16-17-19-|
|--------------------------------------------------------------------------|
|--------------------------------------------------------------------------|


  E5                                   D5
   H                    +E              S  S  S  S  S  S
|--------------------------------------------------------|
|--------------------------------------------------------|
|--9--------------------(9)-------------7--7--7-----7--7-|
|--9--------------------(9)-------------7--7--7-----7--7-|
|--7--------------------(7)-------------5--5--5-----5--5-|
|--------------------------------------------------------|
|
|  S  S  S  E  S  S  S   S      +T   T  S  S  S  S  S  S
|--------------------------------------------------------|
|-17-17-15----17-15--------------------------------------|
|----------16-------16-[14]b16r(14)p12-------------------|
|--------------------------------------14-12-------12----|
|--------------------------------------------12-14-------|
|-----------------------------------------------------14-|


  E5                                               C5          D5
   H                                  +E            e           Q
|----------------------------------------------------------------------------------------|
|----------------------------------------------------------------------------------------|
|--9----------------------------------(9)-----------5-----------7------------------------|
|--9----------------------------------(9)-----------5-----------7------------------------|
|--7----------------------------------(7)-----------3-----------5------------------------|
|----------------------------------------------------------------------------------------|
|
|  S  S  S  S  T  T  T  T  T  T  T  T  T   T  T  T  T  T  T  T  T  T  T  T  T  T  T  T
|--------------------------------------------12-14-15-17-19-20-------17-19-20-19-20-22---|
|----------------12-14-15----------12-14--15-------------------19-20---------------------|
|----------12-14----------11-12-14-------------------------------------------------------|
|-------14-------------------------------------------------------------------------------|
|-12-14----------------------------------------------------------------------------------|
|----------------------------------------------------------------------------------------|


 Outro
           G5 E5              C5      B5                G5 E5
   PM----|        PM--|                         PM----|      PM---------
   S     S  S S   S     S       S       S       S     S  S S S S T T S
|----------------------------------------------------------------------|
|----------------------------------------------------------------------|
|----------12-9-----------------------------------------12-9-----------|
|----------12-9----------------10-------9---------------12-9-----------|
|----------10-7----------------10-------9---------------10-7-----------|
|--0-----0--------0-----0-------8-------7-------0-----0------0-0-0-0-0-|
|
|  Q             +S    +S      +S      +S      +H
|-22b24=========(22)r-(22)b24r(22)b24r(22)b24r(22)b24------------------|
|----------------------------------------------------------------------|
|----------------------------------------------------------------------|
|----------------------------------------------------------------------|
|----------------------------------------------------------------------|
|----------------------------------------------------------------------|


        F5 E5    D5E5    F5 E5
 7/8
 -----|      PM|     PM|      PM|
  S   S  S S S S S S S S  S S S S
|---------------------------------|
|---------------------------------|
|-------10-9-----7-9-----10-9-----|
|-------10-9-----7-9-----10-9-----|
|--------8-7-----5-7------8-7-----|
|-0---0------0-0-----0-0------0-0-|
|
| H..
|---------------------------------|
|---------------------------------|
|---------------------------------|
|---------------------------------|
|---------------------------------|
|---------------------------------|


      G5 E5    C5 B5    G5 E5                F5 E5    D5E5    F5 E5
 4/4
  PM|      PM|      PM|      PM------------|      PM|     PM|      PM----|
  S S  S S S S  S S S S  S S S S T T S   S S  S S S S S S S S  S S S S S S
|--------------------------------------|-----------------------------------|
|--------------------------------------|-----------------------------------|
|-----12-9--------------12-9-----------|-----10-9-----7-9-----10-9---------|
|-----12-9-----10-9-----12-9-----------|-----10-9-----7-9-----10-9---------|
|-----10-7-----10-9-----10-7-----------|------8-7-----5-7------8-7---------|
|-0-0------0-0--8-7-0-0------0-0-0-0-0-|-0-0------0-0-----0-0------0-0-0-0-|


      G5 E5    C5 B5    G5 E5                F5 E5    D5E5    F5 E5
                                        7/8
  PM|      PM|      PM|      PM------------|      PM|     PM|      PM|
  S S  S S S S  S S S S  S S S S T T S   S S  S S S S S S S S  S S S S
|--------------------------------------|-------------------------------|
|--------------------------------------|-------------------------------|
|-----12-9--------------12-9-----------|-----10-9-----7-9-----10-9-----|
|-----12-9-----10-9-----12-9-----------|-----10-9-----7-9-----10-9-----|
|-----10-7-----10-9-----10-7-----------|------8-7-----5-7------8-7-----|
|-0-0------0-0--8-7-0-0------0-0-0-0-0-|-0-0------0-0-----0-0------0-0-|


      G5 E5    C5 B5    G5 E5
 4/4
  PM|      PM|      PM|      PM---------
  S S  S S S S  S S S S  S S S S T T S
|--------------------------------------|
|--------------------------------------|
|-----12-9--------------12-9-----------|
|-----12-9-----10-9-----12-9-----------|
|-----10-7-----10-9-----10-7-----------|
|-0-0------0-0--8-7-0-0------0-0-0-0-0-|


      F5 E5    D5E5    E5                    Bb5  D5E5
 ---|      PM|     PM|
                       |-3-|     |-3-|
  S S  S S S S S S S S S S S S S S S S   S S H    E E +E
|---------------------------
Добавлено: 21.05.2012
Другие материалы по этой песне:

Страница создана 27.02.2012
http://primanota.ru/children-of-bodom/taste-of-my-scythe-chords.htm
Привет, Гость.
Предлагаем пройти революционный курс по гитаре.
Подарок от PrimaNota.Ru, забирай!