PrimaNota.ru - самый крупный в мире бесплатный архив песенных текстов, аккордов, табулатур и нот


Children Of Bodom - She Is Beautiful - текст песни, таба, видео

Регистрация Запомнить меня
Войти через:  Facebook Google Twitter Vk Yandex Mail.ru

Children Of Bodom - She Is Beautiful - текст песни, таба, видео

Печатать
Просмотров: 217
Авторы: Andrew W.K.

This is the intro for she is beautiful by children of bodom or andrew W.K (original singer)
i kinda of got the intro right i hope so hope u enjoy!

|----------------------------------|-----------------------------------|
|----------------------------------|-----------------------------------|
|----------------------------------|-----------------------------------|
|-12/-4-0-12-0-4-0-12-0-11-0-11-12-|-0h7\12-0-7-0-12/5-0-4-0-7-0-11-12-|
|----------------------------------|-----------------------------------|
|----------------------------------|-----------------------------------|

|-------------------------------------|--------------------------------------|
|-------------------------------------|--------------------------------------|
|-------------------------------------|--------------------------------------|
|-0-7\12-4-0-12-0-4-0-12-0-11-0-11-12-|-0h7\12-0-7-0-12\5-0-12-0-14-0-16\12~-|
|-------------------------------------|--------------------------------------|
|-------------------------------------|--------------------------------------|

|------------------|
|------------------|
|------------------|
|-12-12---12-12-12-|
|------------------|
|------------------|

|-----------------------------------------------------|
|-----------------------------------------------------|
|-----------------------------------------------------|
|-5-5555-5-0---7-7h9-11/12--5-5555-5-0----------------|X2
|-5-5555-5-0---7-7h9-11/12--5-5555-5-0--5-4-6-5-5\7-5-|
|-5-5555-5-0---7-7h9-11/12--5-5555-5-0----------------|
Добавлено: 24.04.2012
Другие материалы по этой песне:

Страница создана 29.02.2012
http://primanota.ru/children-of-bodom/she-is-beautiful-chords.htm
Привет, Гость.
Предлагаем пройти революционный курс по гитаре.
Подарок от PrimaNota.Ru, забирай!