PrimaNota.ru - самый крупный в мире бесплатный архив песенных текстов, аккордов, табулатур и нот


Children Of Bodom - Oops I Did It Again - аккорды и текст, таба, бас-таба, видео

Регистрация Запомнить меня
Войти через:  Facebook Google Twitter Vk Yandex Mail.ru

Children Of Bodom - Oops I Did It Again - аккорды и текст, таба, бас-таба, видео

Печатать
Просмотров: 526
Авторы: Max Martin, Rami Yacoub

Oops I Did It Again
Children Of Bodom
Quite a nice cover of a relatively recent Pop song. Chord progression down at the very bottom of the page for
ease and just for the basic patterns of the chords.


Intro: (Finnish Incomprehensible)

          C  C    Bb C  C
       e|-----------------|
       B|-----------------|
       G|-5-x5~-xx3~-5-x5~| X2
       D|-5-x5~-xx3~-5-x5~|
       A|-3-x3~-xx1~-3-x3~|
       E|-----------------|

       C C                               Bb  
           Yeah yeah yeah yeah yeah yeah

       C C
           Oh yeah yeah yeah yeah yeah yeah

Verse:    C          Eb  G#            G
       e|----------------------------------------------|
       B|----------------------------------------------|
       G|-555~-55-x5-8---------------------------------|
       D|-555~-55-x5-8-6-6-6-6-6-6-6-6-5-5-5-5-5-5-5-5-|
       A|-333~-33-x3-6-6-6-6-6-6-6-6-6-5-5-5-5-5-5-5-5-|
       E|--------------4-4-4-4-4-4-4-4-3-3-3-3-3-3-3-3-|

          C                     
          I think I did it again

                     Eb G#                        G 
          I made you believe we're more than just friends (Oh baby!)

          C       G       C             Eb  G#            G
       e|-----------------------------------------------------------------|
       B|-----------------------------------------------------------------|
       G|-5-5-5-5---------5-5-5-5-5-5-5-8---------------------------------|
       D|-5-5-5-5-5-5-5-5-5-5-5-5-5-5-5-8-6-6-6-6-6-6-6-6-5-5-5-5-5-5-5-5-|
       A|-3-3-3-3-5-5-5-5-3-3-3-3-3-3-3-6-6-6-6-6-6-6-6-6-5-5-5-5-5-5-5-5-|
       E|---------3-3-3-3-----------------4-4-4-4-4-4-4-4-3-3-3-3-3-3-3-3-|

          C        G           C
          It might seem like a crush

                 Eb      G#                 G
          But it doesn't mean that I'm serious. 'Cause to

          F       G       G#      Bb
       e|--------------------------------------|
       B|--------------------------------------|
       G|--------------------------------------|
       D|-3~-33~-35~-55~-56~-66~-68~-8-8-8-8-8-|
       A|-3~-33~-35~-55~-56~-66~-68~-8-8-8-8-8-|
       E|-1~-11~-13~-33~-34~-44~-46~-6-6-6-6-6-|

          F              G 
          lose all of my senses

                  G#                Bb
          That is just so typically me...oh baby, baby.

Chorus:    C       G       C       Bb      Eb       Bb     Eb      G
        e|-----------------------------------------------------------------|
        B|-----------------------------------------------------------------|
        G|-5-5-5-5---------5-5-5-5---------8-8-8-8---------8-8-8-8---------|
        D|-5-5-5-5-5-5-5-5-5-5-5-5-8-8-8-8-8-8-8-8-8-8-8-8-8-8-8-8-5-5-5-5-|
        A|-3-3-3-3-5-5-5-5-3-3-3-3-8-8-8-8-6-6-6-6-8-8-8-8-6-6-6-6-5-5-5-5-|
        E|---------3-3-3-3---------6-6-6-6---------6-6-6-6---------3-3-3-3-|

        C       G       C
        Oops! I did it again

          Bb               Eb         Bb          Eb       G
        I played with your heart, got lost in the game (Oh baby, baby)

           C       G       C       Bb      Eb              G
        e|---------------------------------------------------|
        B|---------------------------------------------------|
        G|-5-5-5-5---------5-5-5-5---------8-8-8-8-8-8-8-8---|
        D|-5-5-5-5-5-5-5-5-5-5-5-5-8-8-8-8-8-8-8-8-8-8-8-8-5~|
        A|-3-3-3-3-5-5-5-5-3-3-3-3-8-8-8-8-6-6-6-6-6-6-6-6-5~|
        E|---------3-3-3-3---------6-6-6-6-----------------3~|

           C         G            C   
           Oops! You think I'm in love

                    Bb          Eb
           That I'm sent from above

               G                
           I'm not that innocent

Verse:    C          Eb  G#            G
       e|----------------------------------------------|
       B|----------------------------------------------|
       G|-555~-55-x5-8---------------------------------|
       D|-555~-55-x5-8-6-6-6-6-6-6-6-6-5-5-5-5-5-5-5-5-|
       A|-333~-33-x3-6-6-6-6-6-6-6-6-6-5-5-5-5-5-5-5-5-|
       E|--------------4-4-4-4-4-4-4-4-3-3-3-3-3-3-3-3-|

          C
          You see my problem is this

                       Eb G#
          I'm dreaming a-way

                       G
          Wishing that heroes, they truly exist

          C       D       Eb            F G#              G
       e|-----------------------------------------------------------------|
       B|-----------------------------------------------------------------|
       G|-5-5-5-5-7-7-7-7-8-8-8-8-8-8-8-----------------------------------|
       D|-5-5-5-5-7-7-7-7-8-8-8-8-8-8-8-3-6-6-6-6-6-6-6-6-5-5-5-5-5-5-5-5-|
       A|-3-3-3-3-5-5-5-5-6-6-6-6-6-6-6-3-6-6-6-6-6-6-6-6-5-5-5-5-5-5-5-5-|
       E|-------------------------------1-4-4-4-4-4-4-4-4-3-3-3-3-3-3-3-3-|

          C      D            Eb
          I cry, watching the days

                    F         G#               G
          Can't you see I'm a fool in so many ways

          F       G       G#      Bb
       e|--------------------------------------|
       B|--------------------------------------|
       G|--------------------------------------|
       D|-3~-33~-35~-55~-56~-66~-68~-8-8-8-8-8-|
       A|-3~-33~-35~-55~-56~-66~-68~-8-8-8-8-8-|
       E|-1~-11~-13~-33~-34~-44~-46~-6-6-6-6-6-|

                 F           G
          But to lose all my senses

                 G#                Bb
         That is just so typically me

Chorus:    C       G       C       Bb      Eb       Bb     Eb      G
        e|-----------------------------------------------------------------|
        B|-----------------------------------------------------------------|
        G|-5-5-5-5---------5-5-5-5---------8-8-8-8---------8-8-8-8---------|
        D|-5-5-5-5-5-5-5-5-5-5-5-5-8-8-8-8-8-8-8-8-8-8-8-8-8-8-8-8-5-5-5-5-|
        A|-3-3-3-3-5-5-5-5-3-3-3-3-8-8-8-8-6-6-6-6-8-8-8-8-6-6-6-6-5-5-5-5-|
        E|---------3-3-3-3---------6-6-6-6---------6-6-6-6---------3-3-3-3-|

        C       G       C
        Oops! I did it again

          Bb               Eb         Bb          Eb       G
        I played with your heart, got lost in the game (Oh baby, baby)

           C       G       C       Bb      Eb              G
        e|---------------------------------------------------|
        B|---------------------------------------------------|
        G|-5-5-5-5---------5-5-5-5---------8-8-8-8-8-8-8-8---|
        D|-5-5-5-5-5-5-5-5-5-5-5-5-8-8-8-8-8-8-8-8-8-8-8-8-5~|
        A|-3-3-3-3-5-5-5-5-3-3-3-3-8-8-8-8-6-6-6-6-6-6-6-6-5~|
        E|---------3-3-3-3---------6-6-6-6-----------------3~|

           C         G            C   
           Oops! You think I'm in love

                    Bb          Eb
           That I'm sent from above

               G                
           I'm not that innocent

Bridge (in Finnish): N.C.
                     "Jätkät hei, mä lähen meneen ny ihan oikeesti"

                     'Hei Ankku hei, ennen ku lähet ni kato mitä mä toin sulle'

                     "Ei jumalauta, hyvännäkönen. Siis eiks tää oo siis...."

                     'On on, sixpack, kyllä'

                     "Eihän sun ois tarvinnu hyvä mies, sitä paitsi meill' on noita väkeviä"

                     'Nii nii, mut aamuks!'

Bridge (in English): N.C.
                     "Hey guys, I will really go now..."

                     'Before you leave, look what I brought for you!'

                     "Goddammit, looking good, isn't this a...?"

                     'Yeah yeah, sixpack yes.'

                     "Ohh, this wasn't necessary my friend... and besides, we are having some hooch here..."

                     'I know, but this is for tomorrow morning!'

Solo:    C       G       C       Bb      Eb       Bb     Eb      G
      e|-----------------------------------------------------------------|
      B|-----------------------------------------------------------------|
      G|-5-5-5-5---------5-5-5-5---------8-8-8-8---------8-8-8-8---------|
      D|-5-5-5-5-5-5-5-5-5-5-5-5-8-8-8-8-8-8-8-8-8-8-8-8-8-8-8-8-5-5-5-5-|
      A|-3-3-3-3-5-5-5-5-3-3-3-3-8-8-8-8-6-6-6-6-8-8-8-8-6-6-6-6-5-5-5-5-|
      E|---------3-3-3-3---------6-6-6-6---------6-6-6-6---------3-3-3-3-|

         C       G       C       Bb      Eb              G
      e|---------------------------------------------------|
      B|---------------------------------------------------|
      G|-5-5-5-5---------5-5-5-5---------8-8-8-8-8-8-8-8---|
      D|-5-5-5-5-5-5-5-5-5-5-5-5-8-8-8-8-8-8-8-8-8-8-8-8-5~|
      A|-3-3-3-3-5-5-5-5-3-3-3-3-8-8-8-8-6-6-6-6-6-6-6-6-5~|
      E|---------3-3-3-3---------6-6-6-6-----------------3~|


Chorus:    C       G       C       Bb      Eb       Bb     Eb      G
        e|-----------------------------------------------------------------|
        B|-----------------------------------------------------------------|
        G|-5-5-5-5---------5-5-5-5---------8-8-8-8---------8-8-8-8---------|
        D|-5-5-5-5-5-5-5-5-5-5-5-5-8-8-8-8-8-8-8-8-8-8-8-8-8-8-8-8-5-5-5-5-|
        A|-3-3-3-3-5-5-5-5-3-3-3-3-8-8-8-8-6-6-6-6-8-8-8-8-6-6-6-6-5-5-5-5-|
        E|---------3-3-3-3---------6-6-6-6---------6-6-6-6---------3-3-3-3-|

           C        C      G             Eb         Bb   Eb                G
           Oops! I! did it again to your heart, got lost in this maze (ooh baby!)
         
           C       G       C       Bb      Eb              G
        e|---------------------------------------------------|
        B|---------------------------------------------------|
        G|-5-5-5-5---------5-5-5-5---------8-8-8-8-8-8-8-8---|
        D|-5-5-5-5-5-5-5-5-5-5-5-5-8-8-8-8-8-8-8-8-8-8-8-8-5~|
        A|-3-3-3-3-5-5-5-5-3-3-3-3-8-8-8-8-6-6-6-6-6-6-6-6-5~|
        E|---------3-3-3-3---------6-6-6-6-----------------3~|

        C    G     C              Bb        Eb             G  
        Look you...think that I'm sent from above, but I'm not that innocent!

Outro:    C       G       C       Bb      Eb       Bb     Eb      G
       e|-----------------------------------------------------------------|
       B|-----------------------------------------------------------------|
       G|-5-5-5-5---------5-5-5-5---------8-8-8-8---------8-8-8-8---------|
       D|-5-5-5-5-5-5-5-5-5-5-5-5-8-8-8-8-8-8-8-8-8-8-8-8-8-8-8-8-5-5-5-5-|
       A|-3-3-3-3-5-5-5-5-3-3-3-3-8-8-8-8-6-6-6-6-8-8-8-8-6-6-6-6-5-5-5-5-|
       E|---------3-3-3-3---------6-6-6-6---------6-6-6-6---------3-3-3-3-|

          C       G       C
          Oops! I did it again

            Bb               Eb         Bb          Eb       G
          I played with your heart, got lost in the game (Oh baby, baby)

          C       G       C       Bb      Eb              G
       e|---------------------------------------------------|
       B|---------------------------------------------------|
       G|-5-5-5-5---------5-5-5-5---------8-8-8-8-8-8-8-8---|
       D|-5-5-5-5-5-5-5-5-5-5-5-5-8-8-8-8-8-8-8-8-8-8-8-8-5~|
       A|-3-3-3-3-5-5-5-5-3-3-3-3-8-8-8-8-6-6-6-6-6-6-6-6-5~|
       E|---------3-3-3-3---------6-6-6-6-----------------3~|

          C         G            C   
          Oops! You think I'm in love

                   Bb          Eb
          That I'm sent from above

              G                
          I'm not that innocent


Chord Progression: Intro: (C, Bb C)
                   
                   Verse: (C, Eb, G#, G); (C, G, C, Eb, G#, G)

                   Chorus: (C, G, C, Bb, Eb, Bb, Eb, G, C, G, C, Bb, Eb, G)

                   Bridge: N.C.

                   Solo: (C, G, C, Bb, Eb, Bb, Eb, G, C, G, C, Bb, Eb, G)

                   Outro: (C, G, C, Bb, Eb, Bb, Eb, G, C, G, C, Bb, Eb, G)
Добавлено: 01.04.2016
Другие материалы по этой песне:

Страница создана 02.03.2012
http://primanota.ru/children-of-bodom/oops-i-did-it-again-chords.htm
Привет, Гость.
Предлагаем пройти революционный курс по гитаре.
Подарок от PrimaNota.Ru, забирай!