PrimaNota.ru - самый крупный в мире бесплатный архив песенных текстов, аккордов, табулатур и нот


Children Of Bodom - I Worship Chaos - бас-таба, видео

Регистрация Запомнить меня
Войти через:  Facebook Google Twitter Vk Yandex Mail.ru

Children Of Bodom - I Worship Chaos - бас-таба, видео

Печатать
Просмотров: 62
Children Of Bodom's brand new song I WORSHIP CHAOS

Bass: Henkka Seppälä

Tuning Low to High: (B,F#,B,E)

Intro 0:00
Rest
0:20
1----------------------------------------------------------------
2----------------------------------------------------------------
3----------------------------------------------------------------
4-00000000000000000000000000000000000000000000000000000000000000-

1----------------------------------------------------------------
2----------------------------------------------------------------
3-------------------------------------------------------00003333-
4-000000000000000000000000000000000000000000000022223333---------

Verse 0:40
1----------------------------------------------------------------
2------------------------------2222------------------------------
3----------------------------------2222-5555-3333----------------
4-02--2-52--02--2-32--02--2-52-----------------------------------

1----------------------------------------------------------------
2----------------------------------------------------------------
3----------------------------------------------------------------
4-02--2-52--02--2-32--02--2-12-0000-7777-5555-4444---------------

1----------------------------------------------------------------
2------------------------------2222------------------------------
3----------------------------------2222-5555-3333----------------
4-02--2-52--02--2-32--02--2-52-----------------------------------

1----------------------------------------------------------------
2----------------------------------------------------------------
3----------------------------------------------------------------
4-02--2-52--02--2-32--02--2-12-0000-8888-7777-5555---------------

1----------------------------------------------------------------
2----------------------------------------------------------------
3----------------------------------------------------------------
4-00000000000000000000000000000000000000000000000000000000000000-

1----------------------------------------------------------------
2----------------------------------------------------------------
3----------------------------------------------------------------
4-00000000000000000000000000000000000000000000000000777710101010-

Pre-Chorus
1----------------------------------------------------------------
2------------------------------2222------------------------------
3----------------------------------2222-5555-3333----------------
4-02--2-52--02--2-32--02--2-52-----------------------------------

1----------------------------------------------------------------
2----------------------------------------------------------------
3----------------------------------------------------------------
4-02--2-52--02--2-32--02--2-12-0000-8888-7777-5555---------------

1----------------------------------------------------------------
2------------------------------2222------------------------------
3----------------------------------2222-5555-3333----------------
4-02--2-52--02--2-32--02--2-52-----------------------------------

1----------------------------------------------------------------
2----------------------------------------------------------------
3----------------------------------------------------------------
4-02--2-52--02--2-32--02--2-12-0000-7777-5555-4444---------------

Chorus 1:32
1----------------------------------------------------------------
2----------------------------------------------------------------
3----------------------------------------------------------------
4-3h5-5-5-5-0-0-0-0--3-3-3-6-5-5-5-1-1-1-1-1-0-0-0---------------

1----------------------------------------------------------------
2----------------------------------------------------------------
3----------------------------------5-5-5-5-5-6-6-6-10-10-10-10---
4-3h5-5-5-5-0-0-0-0--3-3-3-6-5-5-5-------------------------------

1----------------------------------------------------------------
2----------------------------------------------------------------
3-9-9-9-9--------------------------------------------------------
4---------3h5-5-5-5-0-0-0-0--3-3-3-6-5-5-5-1-1-1-1-1-0-0-0-------

1----------------------------------------------------------------
2----------------------------------------------------------------
3-5-5-5-5-5-6-6-6-10-10-10-10-9-9-9-9----------------------------
4-------------------------------------0~--5~---------------------

SOLO 1:53
1----------------------------------------------------------------
2----------------------------------------------------------------
3----------------------------------------------------------------
4-444444444444440444444444445555555555555524500000000------------

1----------------------------------------------------------------
2----------------------------------------------------7-5-4-------
3------------------------------------------2-4-5-0-5-------------
4-4444444444444444444444444455555555555555-----------------------

1----------------------------------------------------------------
2----------------------------------------------------------------
3----------------------------------------------------------------
4-444444444444440444444444445555555555555501100022233------------

1--------------------------------------------2---1---0-----------
2--------------------------------------------------------2-------
3------------------------------------------0---0---0---0---------
4-4444444444444444444444444455555555555555------------------0x---

REST 2:15

RETURN 2:19
1----------------------------------------------------------------
2----------------------------------------------------------------
3----------------------------------------------------------------
4-00000000000000000000000000000000000000000000000000000000000000-

1----------------------------------------------------------------
2----------------------------------------------------------------
3-------------------------------------------------------00003333-
4-000000000000000000000000000000000000000000000022223333---------

2ND Pre-Chorus 2:35
1----------------------------------------------------------------
2------------------------------2222------------------------------
3----------------------------------2222-5555-3333----------------
4-02--2-52--02--2-32--02--2-52-----------------------------------

1----------------------------------------------------------------
2----------------------------------------------------------------
3----------------------------------------------------------------
4-02--2-52--02--2-32--02--2-12-0000-8888-7777-5555---------------

1----------------------------------------------------------------
2------------------------------2222------------------------------
3----------------------------------2222-5555-3333----------------
4-02--2-52--02--2-32--02--2-52-----------------------------------

1----------------------------------------------------------------
2----------------------------------------------------------------
3----------------------------------------------------------------
4-02--2-52--02--2-32--02--2-12-0000-7777-5555-4444---------------

2ND Chorus 2:55
1----------------------------------------------------------------
2----------------------------------------------------------------
3----------------------------------------------------------------
4-3h5-5-5-5-0-0-0-0--3-3-3-6-5-5-5-1-1-1-1-1-0-0-0---------------

1----------------------------------------------------------------
2----------------------------------------------------------------
3----------------------------------5-5-5-5-5-6-6-6-10-10-10-10---
4-3h5-5-5-5-0-0-0-0--3-3-3-6-5-5-5-------------------------------

1----------------------------------------------------------------
2----------------------------------------------------------------
3-9-9-9-9--------------------------------------------------------
4---------3h5-5-5-5-0-0-0-0--3-3-3-6-5-5-5-1-1-1-1-1-0-0-0-------

1----------------------------------------------------------------
2----------------------------------------------------------------
3-5-5-5-5-5-6-6-6-10-10-10-10-9-9-9-9----------------------------
4-------------------------------------0~--5~--4~~~~~\\\\\\\\\\x-
                                                    (Gradually)
END!!!

Tab Legend

h= Hammer-On
x= Mute String
~= Let Note Ring
\= Slide Down Neck
Добавлено: 01.04.2016
Другие материалы по этой песне:

Страница создана 05.09.2015
http://primanota.ru/children-of-bodom/i-worship-chaos-chords.htm
Привет, Гость.
Предлагаем пройти революционный курс по гитаре.
Подарок от PrimaNota.Ru, забирай!