PrimaNota.ru - самый крупный в мире бесплатный архив песенных текстов, аккордов, табулатур и нот


Children Of Bodom - Everytime i die melodic riff - таба, видео

Регистрация Запомнить меня
Войти через:  Facebook Google Twitter Vk Yandex Mail.ru

Children Of Bodom - Everytime i die melodic riff - таба, видео

Печатать
Просмотров: 122
Уроки эстрадного вокала в Санкт-Петербурге


this is only the melodic riff at the begining of the song, it fucking rules.
i dont have the full song but this is that amazing riff:

the begining you should be able to work out your self but i'll put this in
anywayz for you all:

_= palm mute

6----------------
5----------------
4----------------
3----------------
2----------------
1-0-00000000-00-0
  _ ________ __ _

(alexi plays 2 differtn technical solo's here)

6----------------------------------
5----------------------------------
4----------------------------------
3-9----------------7-5-3-----------
2--10-9-7-9-5-7-3-------3-3-3-5-5-5
1-----------------7----------------
                        _ _   _ _

6--------------------------------------------
5-12------------------10-8-7-----------------
4---12-11-9-11-7-9-5-------------------------
3-------------------9-------10-10-10-12-12-12
2--------------------------------------------
1--------------------------------------------


so thats the riff, you play the first one twice then second 1 one and a half times then
Alexi plays a really complicated solo wich ends on a delayed....

1-17b
2-
3-
4-
5-
6-

thats all i got, enjoy

tabbed by Ben Holmes (wales, UK)

q's : one_man_cult@hotmail.co.uk ...dont bother me with stupid questions like 'how fast
do you play it' only ask me important questions if theres something you dont understand kk.

also: if theres any hardcore bodom fans plz add me on msn so we can talk :)

Добавлено: 31.08.2013
Вам также может быть интересно:
Другие материалы по этой песне:
  • Аккорды и текст

Страница создана 31.08.2013
http://primanota.ru/children-of-bodom/everytime-i-die-melodic-riff-chords.htm
Привет, Гость.
Предлагаем пройти революционный курс по гитаре.
Подарок от PrimaNota.Ru, забирай!