PrimaNota.ru - самый крупный в мире бесплатный архив песенных текстов, аккордов, табулатур и нот


Cher - Just Like Jesse James - аккорды и текст, таба, видео

Регистрация Запомнить меня
Войти через:  Facebook Google Twitter Vk Yandex Mail.ru

Cher - Just Like Jesse James - аккорды и текст, таба, видео

Печатать
Просмотров: 283
Авторы: Diane Warren, Desmond Child

Just Like Jesse James
Cher
Cher, Just Like Jesse James.
 Tabbed by Mark Geater, Geat@zoom.co.uk.Artist: Cher

Transcribed by Mark Geater (geat@zoom.co.uk)
Comments or suggestions - Why not mail me?

[Intro]

Ab      Eb      C#

            Ab           Eb             C#
e------------------------------------------------13-------------|
B-----13-14-14/16--14-13-------------------14----------14-13----|
G--13--------------------15~~~-17r15-13-------13----13-------13-|
D---------------------------------------15----------------------|
A---------------------------------------------------------------|
E---------------------------------------------------------------|

[Verse 1]

       Ab                              Eb
You're struttin' into town like you're slingin' a gun

       C#                   Eb                Ab
Just a small-town dude with big city attitude

              Eb                         C#             Eb
Honey are you lookin' for some trouble tonight - well alright

    Ab                            Eb
You think you're so bad drive the women folk wild

C#                          Eb                         Ab
shoot 'em all down with the flash of your pearly smile

              Eb                    C#           Eb
Honey but you met your match tonight - oh that's right

[Pre-Chorus 1]

                 Fm                            Ab
You think you'll knock me off my feet 'til I'm flat on the floor

        Bbm                            C#
'Til my heart is cryin' Indian and I'm beggin' for more

   Eb
So come on baby, come on baby

C#                             Eb
Come on baby show me what that loaded gun is for

[Chorus]

           Ab              Eb
If you can give it - I can take it

             C#                              Eb                     Ab
'Cos if this heart is gonna break it's gonna take a lot to break it

           Eb        C#            Eb
'Cos I knowww tonight - somebody's gonna win the fight

             Ab                   Eb
So if you're so tough - c'mon and prove it

              Fm                   C#                        Ab
Your heart is down for the count and you know you're gonna lose it

                     Eb               Db (Hold Chord__________)
Tonight you're gonna go down in flames - just like Jesse James

[Fill]

   Ab           Eb             C#
e---------------------------------------13-------------|
B--14/16--14-13-------------------14----------14-13----|
G---------------15~~~-17r15-13-------13----13-------13-|
D------------------------------15----------------------|
A------------------------------------------------------|
E------------------------------------------------------|

[Verse 2]

          Ab                   Eb
You're an outlaw lover and I'm after you hide

         C#
Well you ain't so strong

         Eb                            Ab
Won't be long 'til your hands are tied

                  Eb                     C#
Tonight I'm gonna take you in dead or alive

       Eb
That's right

    Ab                            Eb
You break the laws of love in the name of desire

     C#  C#    C#   N.C.                    Eb           Ab
Take ten steps back 'cause I'm ready baby - aim and fire

               Eb                     C#                Eb
Baby there's nowhere you gonna run tonight - ooh that's right

[Pre-Chorus 2]

         Fm                                  Ab
Well you had your way with love but it's the end of the day

      Bbm                          C#
Now a team of wild horses couldn't drag your heart away

   Eb
So come on baby, come on baby

C#                                Eb
Come on baby you know there ain't nothing left to say

[Chorus]

           Ab              Eb
If you can give it - I can take it

             C#                              Eb                     Ab
'Cos if this heart is gonna break it's gonna take a lot to break it

      Eb        C#            Eb
I knowww tonight - somebody's gonna win the fight

             Ab                   Eb
So if you're so tough - c'mon and prove it

              Fm                   C#                        Ab
Your heart is down for the count and you know you're gonna lose it

                     Eb               C#                       Ab
Tonight you're gonna go down in flames - just like Jesse James

[Solo]

e-----------------------------------------------|
B-----------------------------------------------|
G--------13-13-13-------------13-13/15-15-------|
D--13/15----------13-13-13/15-------------13-13-|
A-----------------------------------------------|
E-----------------------------------------------|

e-----------------------------------|
B-----------------------------------|
G-----------------------------------|
D-----------------------15-13~~~-15-|
A--11/13-11----------11-------------|
E-----------13-11-13----------------|

e---------------------------------------------------------------|
B--13-14p13----------16-16---14-16p14-13------------------------|
G-----------15-13-13---------------------15-13-12-13-15---------|
D-------------------------------------------------------13/15__-|
A---------------------------------------------------------------|
E---------------------------------------------------------------|

[Pre-Chorus 3]

                 Fm                            Ab
You think you'll knock me off my feet 'til I'm flat on the floor

        Bbm                            C#
'Til my heart is cryin' Indian and I'm beggin' for more

   Eb
So come on baby, come on baby

C#                 N.C.
Come on baby, come ooooooooo-A-ooooo-A-oooo-A-ooooon.

[Chorus]

           Ab              Eb
If you can give it - I can take it

             C#                              Eb                     Ab
'Cos if this heart is gonna break it's gonna take a lot to break it

      Eb        C#            Eb
I knowww tonight - somebody's gonna win the fight

             Ab                   Eb
So if you're so tough - c'mon and prove it

              Fm                   C#                        Ab
Your heart is down for the count and you know you're gonna lose it

                     Eb              C#  Eb                  Ab
Tonight you're gonna go down in flames - just like Jesse James

                     Eb              C#  Eb                  Ab
Tonight you're gonna go down in flames - Just like Jesse James

                     Eb           C#         Eb                 Ab
Tonight you're gonna go down in fla-a-ames - Just like Jesse James

(Hold G#) : {The audible chords are played on piano and synth}
I'm gonna shoot you down Jesse James

-----
Notes
-----

_ - Hold Note
p - Pull Off
r - Release Bent Note
/ - Slide Up
~ - Vibrato

Bbm     Fm
e-1-|   e-8--|
B-2-|   B-9--|
G-3-|   G-10-|
D-3-|   D-10-|
A-1-|   A-8--|
E---|   E----|

My favourite way to play this song is with a clean, acoustic
sounding effect for the first two verses, then a heavy
distortion for the chorus, followed by a real smooth lead
sound for the solo, using the neck pickup. The actual record
is obviously played on a steel-stringed acoustic.

I play all of the chords using either the A or E shapes,
I find these sound closer to the record than if you use the D
shape for the Db and Eb. 
 
 



Добавлено: 08.04.2012
Другие материалы по этой песне:

Страница создана 18.03.2012
http://primanota.ru/cher/just-like-jesse-james-chords.htm
Привет, Гость.
Предлагаем пройти революционный курс по гитаре.
Подарок от PrimaNota.Ru, забирай!