PrimaNota.ru - самый крупный в мире бесплатный архив песенных текстов, аккордов, табулатур и нот


Charlie Clouser - Saw Theme - таба, видео

Регистрация Запомнить меня
Войти через:  Facebook Google Twitter Vk Yandex Mail.ru

Charlie Clouser - Saw Theme - таба, видео

Печатать
Просмотров: 412
I want to play a game with you ... play this tab! 
Live or die ... take your pick.

Intro
e|--------------------------------------------|------------|
B|--------------------------------------------|----------8-|
G|---7-9-10--7-9-10--77-9-10---7-9-10--7-9-10-|-9-7-9-10---|-3 times
D|--------------------------------------------|------------|
A|--------------------------------------------|------------|
E|--------------------------------------------|------------|
                                              |
                                        (On the third 
                                        time stop here)

 |  RE | MI | FA | RE  | RE | MI | FA|RE|RE |
e|------------------------------------------|
B|------------------------------------------|
G|---7----9----10---7-----7----9----10-7--7-|----play 3 times
D|------------------------------------------|
A|------------------5---------------------5-|
E|------------------------------------------|

e|--------------------------------|                          \
B|--------------------------------|                           \
G|--------------------------------|--Guitar 1                  |
D|------------------------------5-|  (On the first time play   |
A|---5-7-8---5-7-8---7--5--7--8---|   this riff one time and   |
E|--------------------------------|   start the guitar 2 part) |
 |                                |                            |-4 times
 |                                |                            |
e|--------------------------------|                            |
B|------------------------------8-|                            |
G|---7-9-10--7-9-10--9--7--9-10---|--Guitar 2                  |
D|--------------------------------|                            |
A|--------------------------------|                           /
E|--------------------------------|                          /


e|--------------------------------|                          \
B|--------------------------------|                           \
G|----------------------------4-5-|--Guitar 1                  |
D|------------5--7----------7-----|                            |
A|---5-7-8--8---------------------|                            |
E|--------------------------------|                            |
 |                                |                            |-2 times
 |                                |                            |
e|----------------------------7-8-|                            |
B|--------------8-10-------10-----|                            |
G|---7-9-10--10-------------------|--Guitar 2                  |
D|--------------------------------|                            |
A|--------------------------------|                           /
E|--------------------------------|                          /


e|--------------------------------|                          \
B|--------------------------------|                           \
G|----------------------------4-5-|--Guitar 1                  |
D|--------------5-7---7--5--7-----|                            | 
A|---5-7-8---8--------------------|                            |
E|--------------------------------|                            |
 |                                |                            |-3 times
 |                                |                            |
e|----------------------------7-8-|                            |
B|--------------8-10--10-8-10-----|                            |
G|---7-9-10--10-------------------|--Guitar 2                  |
D|--------------------------------|                            |
A|--------------------------------|                           /
E|--------------------------------|                          /



Watch this video for strumming: http://www.youtube.com/watch?v=V3KN_bLjzpM
Thanks.
Добавлено: 18.07.2013
Вам также может быть интересно:
Другие материалы по этой песне:
  • Аккорды и текст

Страница создана 18.07.2013
http://primanota.ru/charlie-clouser/saw-theme-chords.htm
Привет, Гость.
Предлагаем пройти революционный курс по гитаре.
Подарок от PrimaNota.Ru, забирай!