PrimaNota.ru - самый крупный в мире бесплатный архив песенных текстов, аккордов, табулатур и нот


Чайф - В ночь по новым адресам - аккорды и текст, видео

Регистрация Запомнить меня
Войти через:  Facebook Google Twitter Vk Yandex Mail.ru

Чайф - В ночь по новым адресам - аккорды и текст, видео

Печатать
Просмотров: 668
Авторы музыки: Вячеслав Двинин
Авторы текста: Сергей Валерьевич Шкаликов
В ночь по новым адресам
Чайф
Песня играется одним и тем же перебором pamiamim с небольшими вариациями. 
Тональность - рэ мажор (кажется :))

Проигрыш:
|---2-----2---------0-----0---------2-----2---------0-----0---------2-----2-------
|-----3-----3---3-----2-----2---2-----3-----3---3-----2-----2---2-----3-----3---3-
|-------2-----2---------2-----2---------4-----4---------2-----2---------4-----4---
|-0-------------------------------------------------------------------------------
------0---------------2-----------------------------------------------
--------------------------------------2---------------3---------------

---0-----0-----------------------------------0---|
-----2-----2---0---3-----3-------0---2---3-----3-|
-------2-----2-------4-----4---4---0---0---0-----|
-----------------------5-----5-------------------|
-------------------------------------------------|
-2---------------3-------------------------------|

Куплет
|---2-----2---------0-----0---------2-----2---------0-----0---------2-----2-------
|-----3-----3---3-----2-----2---2-----3-----3---3-----2-----2---2-----3-----3---3-
|-------2-----2---------2-----2---------4-----4---------2-----2---------4-----4---
|-0-------------------------------------------------------------------------------
------0---------------2-----------------------------------------------
--------------------------------------2---------------3---------------
     Дело вовсе   не в тоске:        Я гуляю      по Москве.         Что-то было, 

---0-----0-----------------------------------0---|
-----2-----2---0---3-----3-------0---2---3-----3-|
-------2-----2-------4-----4---4---0---0---0-----|
-----------------------5-----5-------------------|
-------------------------------------------------|
-2---------------3-------------------------------|
   что-то сплыло    В ночь по новым адресам

|---2-----2---------0-----0---------2-----2---------0-----0---------2-----2-------
|-----3-----3---3-----2-----2---2-----3-----3---3-----2-----2---2-----3-----3---3-
|-------2-----2---------2-----2---------4-----4---------2-----2---------4-----4---
|-0-------------------------------------------------------------------------------
------0---------------2-----------------------------------------------
--------------------------------------2---------------3---------------
     Я туда-сю    да гуляю,        Я пути      не различаю.         Я судьбу 

-----0-----0-----------------------------------0---|
-------2-----2---0---3-----3-------0---2---3-----3-|
---------2-----2-------4-----4---4---0---0---0-----|
-------------------------5-----5-------------------|
---------------------------------------------------|
---2---------------3-------------------------------|
свою гадаю            По трамвайным номерам.

Припев:

---2-----2---------0-----0---------2-----2---------0-----0--------------------
-----3-----3---3-----2-----2---2-----3-----3---3-----2-----2---2--------------
-------4-----4---------2-----2---------4-----4---------2-----2----------------
------------------------------------------------------------------------------
------------------------------------------------------------------------------
-3---------------2---------------3---------------2----------------------------
   Дело вовсе    не в бреду         Я туда-сю    да бреду


---2-----2---------0-----0----------------------------------0-----------------
-----3-----3---3-----2-----2---2---3----3-------0---2---3-----3---------------
-------4-----4---------2-----2-------4----4---4---0---0---0-------------------
--------------------------------------5-----5---------------------------------
------------------------------------------------------------------------------
-3---------------2---------------3--------------------------------------------
    Я туда-сю    да гуляю           Я судьбу свою не знаю.
и т.д.

Проигрыш

Дело вовсе не в тоске:
Я гуляю по Москве.
Что-то было, что-то сплыло
В ночь по новым адресам
Я туда-сюда гуляю,
Я пути не различаю.
Я судьбу свою гадаю
По трамвайным номерам.

Припев
     Дело вовсе не в бреду
     Я туда-сюда бреду
     Я туда-сюда гуляю
     Я судьбу свою не знаю.

Проигрыш

Дело вовсе не в бреду:
Я туда-сюда бреду,
Как собака тянет носом,
След ища на свой порог.
У знакомого окошка
Постою чуть-чуть, немножко.
И пойду своей дорогой
Как по полю босиком.

Припев
Проигрыш

Дело вовсе не в зиме:
Тело – бряк и на земле,
И душа вдруг полетела,
Всех чертей опередив.
И кому какое дело,
Что рифмуется несмело,
И болтаться надоело, 
И сбивается мотив.

Припев
Проигрыш

|-------2-|
|-----3---|
|---2-----|
|-0-------|
Добавлено: 09.03.2012
Другие материалы по этой песне:
  • Аккорды и текст

Страница создана 09.03.2012
http://primanota.ru/chaif-2/v-noch-po-novym-adresam-chords.htm
Привет, Гость.
Предлагаем пройти революционный курс по гитаре.
Подарок от PrimaNota.Ru, забирай!