PrimaNota.ru - самый крупный в мире бесплатный архив песенных текстов, аккордов, табулатур и нот


Cecilia Krull - Somethings Triggered - текст песни, таба, видео

Регистрация Запомнить меня
Войти через:  Facebook Google Twitter Vk Yandex Mail.ru

Cecilia Krull - Somethings Triggered - текст песни, таба, видео

Печатать
Просмотров: 883
-------------------------------------------------------------------------------
                   Something's Triggered - Cecilia Krull
-------------------------------------------------------------------------------
Tabbed by: edgarlance
Facebook: facebook.com/edgarlance

Tuning: 440

Intro:

e|-----------------------------------------------|
B|-----------------------------------------------|
G|---5---5---4---4----10-----10-----9-----9------|
D|--5-5-5-5-5-5-5-5-10--10-10--10-10-10-10-10----|
A|-3---3---2---2---8------8------7-----7---------|
E|-----------------------------------------------|

Chords:

     C   Gm  A#  F   Am  D   Dm
e|---3---3---6---8---5---5---5---|
B|---5---3---6---10--5---7---6---|
G|---5---3---7---10--5---7---7---|
D|---5---5---8---10--7---7---7---|
A|---3---5---8---8---7---5---5---|
E|---3---3---6---8---5---5---5---|


C                              Gm
I guess you are thinking of me now
C                              Gm       
And you know that I'm thinking of you
C                              Gm
Baby, please, love me one more time.
A#                                    F
'Cause you know that you are the only one.

And I say

C       Gm
Ooh believe me
      A#          F
'cause you are the one.

And I say
C       Gm
Ooh believe me
      A#          F
'cause you are the one.

I need you every day and every nigth
Something's triggered when I look at you
I'm in peace when I'm in your arms
And I'm happy because I feel free
And I say

Oooh love me
'cause you are for me and I'm yours
And I say
Oooh love me
'cause you are for me and I'm yours

Am                            D          Dm Am
Trust your feelings, just let yourself go
                              D            Dm   F
Remember  when your heart start to beat so hard

Oooh oooh

Solo:

e|-----------------------|
B|---8/10-8-6-5-6-8/10-8-|
G|-----------------------|
D|-10--------------------|
A|-----------------------|
E|-----------------------|

And I say

Oooh love me
'cause you are for me and I'm yours
And I say
Oooh believe me
'cause you are the one

'cause you are the one

Cecilia Krill: http://www.ceciliakrill.com.ar/
Добавлено: 22.10.2013
Другие материалы по этой песне:
  • Аккорды и текст

Страница создана 22.10.2013
http://primanota.ru/cecilia-krull/somethings-triggered-chords.htm
Привет, Гость.
Предлагаем пройти революционный курс по гитаре.
Подарок от PrimaNota.Ru, забирай!