PrimaNota.ru - самый крупный в мире бесплатный архив песенных текстов, аккордов, табулатур и нот


Cat Power - What Would The Community Think - текст песни, таба, видео

Регистрация Запомнить меня
Войти через:  Facebook Google Twitter Vk Yandex Mail.ru

Cat Power - What Would The Community Think - текст песни, таба, видео

Печатать
Просмотров: 220
Авторы текста: Chan Marshall
-----------------------------------------------------------------------
             WHAT WOULD THE COMMUNITY THINK- Cat Power
-----------------------------------------------------------------------
Tabbed by: lifer
Email: paranoid_toaster@hotmail.com

Tuning: standard

Main 'riff'
e|---------------------------------------------------------------------|
B|---------------------------------------------------------------------|
G|---------0-----------------------------------------------------------|
D|-----3-----3---2-----------------------------------------------------|
A|---3---3-----3---0---------------------------------------------------|
E|---------------------------------------------------------------------|

Variation 1
e|---------------------------------------------------------------------|
B|---------------------------------------------------------------------|
G|---------0-----------2---0-------------------------------------------|
D|-----3-----3---2-------0---------------------------------------------|
A|---3---3-----3---0---------------------------------------------------|
E|---------------------------------------------------------------------|

Variation 2
e|---------------------------------------------------------------------|
B|---------------------------------------------------------------------|
G|---------0-----------4b---0------------------------------------------|
D|-----3-----3---2--------0--------------------------------------------|
A|---3---3-----3---0---------------------------------------------------|
E|---------------------------------------------------------------------|
note: only a slight bend

Other part
e|---------------------------------------------------------------------|
B|------------------(0)------------------------------------------------|
G|--(0)----------(0)---------------------------------------------------|
D|---3--3--3--2--------------------------------------------------------|
A|---3--3--3--0--------------------------------------------------------|
E|---------------------------------------------------------------------|
Добавлено: 21.06.2012
Другие материалы по этой песне:
  • Аккорды и текст

Страница создана 28.03.2012
http://primanota.ru/cat-power/what-would-the-community-think-chords.htm
Привет, Гость.
Предлагаем пройти революционный курс по гитаре.
Подарок от PrimaNota.Ru, забирай!