PrimaNota.ru - самый крупный в мире бесплатный архив песенных текстов, аккордов, табулатур и нот


Casualties - Kill The Hippies - текст песни, таба, видео

Регистрация Запомнить меня
Войти через:  Facebook Google Twitter Vk Yandex Mail.ru

Casualties - Kill The Hippies - текст песни, таба, видео

Печатать
Просмотров: 145
-------------------------------------------------------------------------------
	          Kill the Hippies - The Casualties
----------------------------------------------------------------------------
---

Tabbed by: Jimmy
Email: jammasterjimbo1@sbcglobal.net

Tuning: standard

  (verse 1)
e|---------------------------------------------------------------------------|
B|---------------------------------------------------------------------------|
G|---------------------------------------------------------------------------|
D|--9--9-9-9-9-9-9-9-9-10--9--7--7-7-7-7-7--5--5-5-5-5-5---------------------|
A|--7--7-7-7-7-7-7-7-7--8--7--5--5-5-5-5-5--3--3-3-3-3-3---------------------|
E|---------------------------------------------------------------------------|           
               (repeat above 5x)

  (chorus)
e|---------------------------------------------------------------------------|
B|---------------------------------------------------------------------------|
G|---------------------------------------------------------------------------|
D|------------------3--3-3-3-3-3-3--5--5-5-5-5-5-5--7--7-7-7-7-7-7-----------|
A|--3--3-3-3-3-3-3--1--1-1-1-1-1-1--3--3-3-3-3-3-3--5--5-5-5-5-5-5-----------|
E|--1--1-1-1-1-1-1-----------------------------------------------------------|           
                (repeat above 3x)

  (end of chorus)
e|---------------------------------------------------------------------------|
B|---------------------------------------------------------------------------|
G|---------------------------------------------------------------------------|
D|--9--9-9-9-9--7--9--9-9-9-9--7--9--9-9-9-9--7--9-9-9-9-9-------------------|
A|--7--7-7-7-7--5--7--7-7-7-7--5--7--7-7-7-7--5--7-7-7-7-7-------------------|
E|---------------------------------------------------------------------------|           
right after chorus)(repeat entire tab 1x)

| /  slide up
| \  slide down
| h  hammer-on
| p  pull-off
| ~  vibrato
| +  harmonic
| x  Mute note
===============================================================================
Добавлено: 18.07.2013
Другие материалы по этой песне:
  • Аккорды и текст

Страница создана 08.03.2012
http://primanota.ru/casualties/kill-the-hippies-chords.htm
Привет, Гость.
Предлагаем пройти революционный курс по гитаре.
Подарок от PrimaNota.Ru, забирай!