PrimaNota.ru - самый крупный в мире бесплатный архив песенных текстов, аккордов, табулатур и нот


Casualties - No Life - текст песни, таба, видео

Регистрация Запомнить меня
Войти через:  Facebook Google Twitter Vk Yandex Mail.ru

Casualties - No Life - текст песни, таба, видео

Печатать
Просмотров: 117
Уроки эстрадного вокала в Санкт-Петербурге
One of Colin's greatest songs off the early years.
Intro
e|-----------------|
B|-----------------|
G|-----------------|
D|-----------------|
A|-----------------|
E|-1-1-1-1-1-1-1-1-|

Verse
e|-----------------|
B|-----------------|
G|-----------------|
D|-------------5-5-|
A|-3-3-3-3-3-3-3-3-|
E|-1-1-1-1-1-1-----|

Chorus
First 2 times
e|-------------------------|
B|-------------------------|
G|-------------------------|
D|-------------------------|
A|-7-7-7-7-7-7-8-8-8-8-7-5-|
E|-5-5-5-5-5-5-6-6-6-6-5-3-|
"You put your pride above it all"
e|-----------------|
B|-----------------|
G|-----------------|
D|-------------5-5-|
A|-3-3-3-3-3-3-3-3-|
E|-1-1-1-1-1-1-----|
Last 2 times
e|-------------------------|
B|-------------------------|
G|-------------------------|
D|-------------------------|
A|-7-7-7-7-7-7-8-8-8-8-7-5-|
E|-5-5-5-5-5-5-6-6-6-6-5-3-|
"You're a big shot, or that's how you play"
e|-----------------|
B|-----------------|
G|-----------------|
D|-5-5-5-5-5-5-5-5-|
A|-3-3-3-3-3-3-3-3-|
E|-----------------|

Bridge Part 1 (x2)
e|-------------------------|
B|-------------------------|
G|-------------------------|
D|-------------------------|
A|-8-8-7-8-8-7-8-8-7-8-8-8-|
E|-6-6-5-6-6-5-6-6-5-6-6-6-|
                               
e|-------------|
B|-------------|
G|-------------|
D|-5-5-5-5-5-5-|
A|-3-3-3-3-3-3-|
E|-------------|

Part 2 (x1)
e|-----------------------|
B|-----------------------|
G|-----------------------|
D|-----------------------|
A|-8-8-7-8-8-7-8-8-8-7-5-|
E|-6-6-5-6-6-5-6-6-6-5-3-|
Back into main riff
Добавлено: 25.01.2014
Другие материалы по этой песне:

Страница создана 25.06.2012
http://primanota.ru/casualties/no-life-chords.htm
Привет, Гость.
Предлагаем пройти революционный курс по гитаре.
Подарок от PrimaNota.Ru, забирай!