PrimaNota.ru - самый крупный в мире бесплатный архив песенных текстов, аккордов, табулатур и нот


Carlos Santana - Songwind - бас-таба, видео

Регистрация Запомнить меня
Войти через:  Facebook Google Twitter Vk Yandex Mail.ru

Carlos Santana - Songwind - бас-таба, видео

Печатать
Просмотров: 118
Уроки эстрадного вокала в Санкт-Петербурге
SANTANA  -  Songwind   basstab

TablEdited by Jan Bjorklund    jani_bjorklund@yahoo.se>
You are welcome to request for tabs!
Fingering and positions as suggested by TablEdit, please use common sense.


TablEdited by Jan.Bjorklund
Tuning : E A D G 	Time Signature: 4/4

  |       |       |       |        |       |       |       |
|--------------------------------|----------------5---------------|
|--------------------------------|3-----------3---------------3---|
|--------------------------------|--------------------------------|
|--------------------------------|--------------------------------|

  |       |       |       |        |       |       |       |
|----------------0---------------|--------------------------------|
|--------------------------------|3-----------3---3-----------3---|
|3-----------3---------------3---|--------------------------------|
|--------------------------------|--------------------------------|

  |       |       |       |        |       |       |       |
|------------0---0---------------|----------------5---------------|
|--------------------------------|3-----------3---------------3---|
|3---------------------------3---|--------------------------------|
|--------------------------------|--------------------------------|

  |       |       |       |        |       |       |       |
|------------0---0---------------|------------5---5---------------|
|----------------------------4---|3---------------------------3---|
|3-------------------------------|--------------------------------|
|--------------------------------|--------------------------------|

  |       |       |       |        |       |       |       |
|------------0---0---------------|----------------5---------------|
|----------------------------4---|3-----------3---------------3---|
|3-------------------------------|--------------------------------|
|--------------------------------|--------------------------------|

  |       |       |       |        |       |       |       |
|------------0---0---------------|--------------------------------|
|----------------------------2---|3-----------3---3-----------3---|
|3-------------------------------|--------------------------------|
|--------------------------------|--------------------------------|

  |       |       |       |        |       |       |       |
|--------------------------------|------------5---5---------------|
|--------------------------------|3---------------------------3---|
|3-----------3---3-----------3---|--------------------------------|
|--------------------------------|--------------------------------|

  |       |       |       |        |       |       |       |
|----------------0---------------|------------5---5---------------|
|--------------------------------|3-------------------------------|
|3-----------3---------------3---|----------------------------2---|
|--------------------------------|--------------------------------|

  |       |       |       |        |       |       |       |
|------------0---0---------------|--------------------------------|
|--------------------------------|3-----------3---3-----------3---|
|3---------------------------3---|--------------------------------|
|--------------------------------|--------------------------------|

  |       |       |       |        |       |       |       |
|------------0---0---------------|----------------5---------------|
|----------------------------4---|3-----------3---------------3---|
|3-------------------------------|--------------------------------|
|--------------------------------|--------------------------------|

  |       |       |       |        |       |       |       |
|----------------0---------------|------------5---5---------------|
|--------------------------------|3-------------------------------|
|3-----------3---------------3---|----------------------------4---|
|--------------------------------|--------------------------------|

  |       |       |       |        |       |       |       |
|------------0---0---------------|--------------------------------|
|--------------------------------|3-----------3---3-----------3---|
|3---------------------------3---|--------------------------------|
|--------------------------------|--------------------------------|

  |       |       |       |        |       |       |       |
|--------------------------------|--------------------------------|
|--------------------------------|3-----------3---3-----------3---|
|3-----------3---3-----------3---|--------------------------------|
|--------------------------------|--------------------------------|

  |       |       |       |        |       |       |       |
|----------------0---------------|------------5---5---------------|
|--------------------------------|3---------------------------3---|
|3-----------3---------------3---|--------------------------------|
|--------------------------------|--------------------------------|

  |       |       |       |        |       |       |       |
|--------------------------------|------------5---5---------------|
|--------------------------------|3-------------------------------|
|3-----------3---3-----------3---|----------------------------2---|
|--------------------------------|--------------------------------|

  |       |       |       |        |       |       |       |
|----------------0---------------|----------------5---------------|
|--------------------------------|3-----------3---------------3---|
|3-----------3---------------3---|--------------------------------|
|--------------------------------|--------------------------------|

  |       |       |       |        |       |       |       |
|----------------0---------------|------------5---5---------------|
|--------------------------------|3-------------------------------|
|3-----------3---------------3---|----------------------------4---|
|--------------------------------|--------------------------------|

  |       |       |       |        |       |       |       |
|------------0---0---------------|------------5---5---------------|
|----------------------------2---|3-------------------------------|
|3-------------------------------|----------------------------4---|
|--------------------------------|--------------------------------|

  |       |       |       |        |       |       |       |
|------------0---0---------------|----------------5---------------|
|----------------------------2---|3-----------3---------------3---|
|3-------------------------------|--------------------------------|
|--------------------------------|--------------------------------|

  |       |       |       |        |       |       |       |
|----------------0---------------|------------5---5---------------|
|--------------------------------|3-------------------------------|
|3-----------3---------------3---|----------------------------2---|
|--------------------------------|--------------------------------|

  |       |       |       |        |       |       |       |
|------------0---0---------------|----------------5---------------|
|--------------------------------|3-----------3---------------3---|
|3---------------------------3---|--------------------------------|
|--------------------------------|--------------------------------|

  |       |       |       |        |       |       |       |
|------------0---0---------------|------------5---5---------------|
|--------------------------------|3-------------------------------|
|3---------------------------3---|----------------------------2---|
|--------------------------------|--------------------------------|

  |       |       |       |        |       |       |       |
|----------------0---------------|------------5---5---------------|
|--------------------------------|3---------------------------3---|
|3-----------3---------------3---|--------------------------------|
|--------------------------------|--------------------------------|

  |       |       |       |        |       |       |       |
|----------------0---------------|----------------5---------------|
|--------------------------------|3-----------3---------------3---|
|3-----------3---------------3---|--------------------------------|
|--------------------------------|--------------------------------|

  |       |       |       |        |       |       |       |
|------------0---0---------------|------------5---5---------------|
|----------------------------4---|3-------------------------------|
|3-------------------------------|----------------------------2---|
|--------------------------------|--------------------------------|

  |       |       |       |        |       |       |       |
|------------0---0---------------|------------5---5---------------|
|----------------------------2---|3-------------------------------|
|3-------------------------------|----------------------------4---|
|--------------------------------|--------------------------------|

  |       |       |       |        |       |       |       |
|--------------------------------|------------5---5---------------|
|--------------------------------|3-------------------------------|
|3-----------3---3-----------3---|----------------------------2---|
|--------------------------------|--------------------------------|

  |       |       |       |        |       |       |       |
|----------------0---------------|------------5---5---------------|
|--------------------------------|3-------------------------------|
|3-----------3---------------3---|----------------------------2---|
|--------------------------------|--------------------------------|

  |       |       |       |        |       |       |       |
|--------------------------------|------------5---5---------------|
|--------------------------------|3---------------------------3---|
|3-----------3---3-----------3---|--------------------------------|
|--------------------------------|--------------------------------|

  |       |       |       |        |       |       |       |
|------------0---0---------------|--------------------------------|
|--------------------------------|3-----------3---3-----------3---|
|3---------------------------3---|--------------------------------|
|--------------------------------|--------------------------------|

  |       |       |       |        |       |       |       |
|------------0---0---------------|----------------5---------------|
|----------------------------4---|3-----------3---------------3---|
|3-------------------------------|--------------------------------|
|--------------------------------|--------------------------------|

  |       |       |       |        |       |       |       |
|------------0---0---------------|----------------5---------------|
|----------------------------2---|3-----------3---------------3---|
|3-------------------------------|--------------------------------|
|--------------------------------|--------------------------------|

  |       |       |       |        |       |       |       |
|------------0---0---------------|------------5---5---------------|
|----------------------------2---|3-------------------------------|
|3-------------------------------|----------------------------2---|
|--------------------------------|--------------------------------|

  |       |       |       |        |       |       |       |
|------------0---0---------------|------------5---5---------------|
|----------------------------4---|3-------------------------------|
|3-------------------------------|----------------------------2---|
|--------------------------------|--------------------------------|

  |       |       |       |        |       |       |       |
|------------0---0---------------|----------------5---------------|
|----------------------------4---|3-----------3---------------3---|
|3-------------------------------|--------------------------------|
|--------------------------------|--------------------------------|

  |       |       |       |        |       |       |       |
|--------------------------------|------------5---5---------------|
|--------------------------------|3-------------------------------|
|3-----------3---3-----------3---|----------------------------2---|
|--------------------------------|--------------------------------|

  |       |       |       |        |       |       |       |
|------------0---0---------------|------------5---5---------------|
|----------------------------4---|3---------------------------3---|
|3-------------------------------|--------------------------------|
|--------------------------------|--------------------------------|

  |       |       |       |        |       |       |       |
|----------------0---------------|------------5---5---------------|
|--------------------------------|3---------------------------3---|
|3-----------3---------------3---|--------------------------------|
|--------------------------------|--------------------------------|

  |       |       |       |        |       |       |       |
|--------------------------------|------------5---5---------------|
|--------------------------------|3-------------------------------|
|3-----------3---3-----------3---|----------------------------2---|
|--------------------------------|--------------------------------|

  |       |       |       |        |       |       |       |
|----------------0---------------|----------------5---------------|
|--------------------------------|3-----------3---------------3---|
|3-----------3---------------3---|--------------------------------|
|--------------------------------|--------------------------------|

  |       |       |       |        |       |       |       |
|----------------0---------------|------------5---5---------------|
|--------------------------------|3---------------------------3---|
|3-----------3---------------3---|--------------------------------|
|--------------------------------|--------------------------------|

  |       |       |       |        |       |       |       |
|------------0---0---------------|------------5---5---------------|
|--------------------------------|3-------------------------------|
|3---------------------------3---|----------------------------4---|
|--------------------------------|--------------------------------|

  |       |       |       |        |       |       |       |
|------------0---0---------------|------------5---5---------------|
|----------------------------4---|3---------------------------3---|
|3-------------------------------|--------------------------------|
|--------------------------------|--------------------------------|

  |       |       |       |        |       |       |       |
|----------------0---------------|------------5---5---------------|
|--------------------------------|3-------------------------------|
|3-----------3---------------3---|----------------------------2---|
|--------------------------------|--------------------------------|

  |       |       |       |        |       |       |       |
|----------------0---------------|------------5---5---------------|
|--------------------------------|3-------------------------------|
|3-----------3---------------3---|----------------------------4---|
|--------------------------------|--------------------------------|

  |       |       |       |        |       |       |       |
|--------------------------------|------------5---5---------------|
|--------------------------------|3---------------------------3---|
|3-----------3---3-----------3---|--------------------------------|
|--------------------------------|--------------------------------|

  |       |       |       |        |       |       |       |
|------------0---0---------------|------------5---5---------------|
|----------------------------2---|3---------------------------3---|
|3-------------------------------|--------------------------------|
|--------------------------------|--------------------------------|

  |       |       |       |        |       |       |       |
|------------0---0---------------|----------------5---------------|
|----------------------------4---|3-----------3---------------3---|
|3-------------------------------|--------------------------------|
|--------------------------------|--------------------------------|

  |       |       |       |        |       |       |       |
|------------0---0---------------|----------------5---------------|
|----------------------------4---|3-----------3---------------3---|
|3-------------------------------|--------------------------------|
|--------------------------------|--------------------------------|

  |       |       |       |        |       |       |       |
|------------0---0---------------|--------------------------------|
|----------------------------2---|3-----------3---3-----------3---|
|3-------------------------------|--------------------------------|
|--------------------------------|--------------------------------|

  |       |       |       |        |       |       |       |
|----------------0---------------|--------------------------------|
|--------------------------------|3-----------3---3-----------3---|
|3-----------3---------------3---|--------------------------------|
|--------------------------------|--------------------------------|

  |       |       |       |        |       |       |       |
|----------------0---------------|------------5---5---------------|
|--------------------------------|3---------------------------3---|
|3-----------3---------------3---|--------------------------------|
|--------------------------------|--------------------------------|

  |       |       |       |        |       |       |       |
|------------0---0---------------|----------------5---------------|
|----------------------------2---|3-----------3---------------3---|
|3-------------------------------|--------------------------------|
|--------------------------------|--------------------------------|

  |       |       |       |        |       |       |       |
|------------0---0---------------|------------5---5---------------|
|----------------------------2---|3-------------------------------|
|3-------------------------------|----------------------------2---|
|--------------------------------|--------------------------------|

  |       |       |       |        |       |       |       |
|------------0---0---------------|------------5---5---------------|
|----------------------------4---|3-------------------------------|
|3-------------------------------|----------------------------2---|
|--------------------------------|--------------------------------|

  |       |       |       |        |       |       |       |
|------------0---0---------------|------------5---5---------------|
|----------------------------4---|3-------------------------------|
|3-------------------------------|----------------------------2---|
|--------------------------------|--------------------------------|

  |       |       |       |        |       |       |       |
|------------0---0---------------|------------5---5---------------|
|--------------------------------|3-------------------------------|
|3---------------------------3---|----------------------------2---|
|--------------------------------|--------------------------------|

  |       |       |       |        |       |       |       |
|------------0---0---------------|------------5---5---------------|
|--------------------------------|3-------------------------------|
|3---------------------------3---|----------------------------4---|
|--------------------------------|--------------------------------|

  |       |       |       |        |       |       |       |
|------------0---0---------------|----------------5---------------|
|--------------------------------|3-----------3---------------3---|
|3---------------------------3---|--------------------------------|
|--------------------------------|--------------------------------|

  |       |       |       |        |       |       |       |
|--------------------------------|------------5---5---------------|
|--------------------------------|3-------------------------------|
|3-----------3---3-----------3---|----------------------------4---|
|--------------------------------|--------------------------------|

  |       |       |       |        |       |       |       |
|------------0---0---------------|------------5---5---------------|
|----------------------------2---|3-------------------------------|
|3-------------------------------|----------------------------2---|
|--------------------------------|--------------------------------|

  |       |       |       |        |       |       |       |
|------------0---0---------------|------------5---5---------------|
|----------------------------2---|3-------------------------------|
|3-------------------------------|----------------------------2---|
|--------------------------------|--------------------------------|

  |       |       |       |        |       |       |       |
|----------------0---------------|------------5---5---------------|
|--------------------------------|3-------------------------------|
|3-----------3---------------3---|----------------------------4---|
|--------------------------------|--------------------------------|

  |       |       |       |        |       |       |       |
|----------------0---------------|----------------5---------------|
|--------------------------------|3-----------3---------------3---|
|3-----------3---------------3---|--------------------------------|
|--------------------------------|--------------------------------|

  |       |       |       |        |       |       |       |
|------------0---0---------------|------------5---5---------------|
|--------------------------------|3-------------------------------|
|3---------------------------3---|----------------------------4---|
|--------------------------------|--------------------------------|

  |       |       |       |        |       |       |       |
|------------0---0---------------|------------0---0---------------|
|----------------------------4---|--------------------------------|
|3-------------------------------|3-------------------------------|
|--------------------------------|------------------------3-------|

  |       |       |       |
|--------------------------------|
|--------------------------------|
|3-------------------------------|
|--------------------------------|


Created with TablEdit http://www.tabledit.com/

     
Добавлено: 07.10.2013
Другие материалы по этой песне:
  • Аккорды и текст

Страница создана 07.10.2013
http://primanota.ru/carlos-santana/songwind-chords.htm
Привет, Гость.
Предлагаем пройти революционный курс по гитаре.
Подарок от PrimaNota.Ru, забирай!