PrimaNota.ru - самый крупный в мире бесплатный архив песенных текстов, аккордов, табулатур и нот


Carlos Santana - Carnival - бас-таба, видео

Регистрация Запомнить меня
Войти через:  Facebook Google Twitter Vk Yandex Mail.ru

Carlos Santana - Carnival - бас-таба, видео

Печатать
Просмотров: 182
SANTANA - Carnival basstab

TablEdited by Jan Bjorklund    jani_bjorklund@yahoo.se>
You are welcome to request for tabs!
Fingering and positions as suggested by TablEdit, please use common sense.


TablEdited by Jan.Bjorklund
Tuning : E A D G 	Time Signature: 4/4

  |       |       |       |        |       |       |       |
|--------------------------------|--------------------------------|
|--------------------------------|--------------------------------|
|--------------------------------|--------------------------------|
|--------------------------------|3-------------------------------|

  |       |       |       |        |       |       |       |
|--------------------------------|--------------------------------|
|--------------------------------|--------------------------------|
|--------------------------------|--------------------------------|
|----------------------------3---|3-------------------------------|

  |       |       |       |        |       |       |       |
|--------------------------------|--------------------------------|
|--------------------------------|--------------------------------|
|--------------------------------|--------------------------------|
|----------------------------3---|3-----3-3-------------------3---|

  |       |       |       |        |       |       |       |
|--------------------------------|--------------------------------|
|--------------------------------|--------------------------------|
|--------------------------------|--------------------------------|
|3-----3-3-------------------3---|3-----3-3-------------------3---|

  |       |       |       |        |       |       |       |
|--------------------------------|--------------------------------|
|--------------------------------|--------------------------------|
|--------------------------------|--------------------------------|
|3-----3-3-------------------3---|3-----3-3-------3-----3-3-------|

  |       |       |       |        |       |       |       |
|--------------------------------|--------------------------------|
|--------------------------------|--------------------------------|
|--------------------------------|--------------------------------|
|3-----3-3-------3-----3-3-------|3-----3-3-------3-----3-3-------|

  |       |       |       |        |       |       |       |
|--------------------------------|--------------------------------|
|--------------------------------|--------------------------------|
|--------------------------------|--------------------------------|
|3-----3-3-------3-----3-3-------|3-----3-3-------3-----3-3-------|

  |       |       |       |        |       |       |       |
|--------------------------------|--------------------------------|
|--------------------------------|--------------------------------|
|--------------------------------|--------------------------------|
|3-----3-3-------3-----3-3-------|3-----3-3-------3-----3-3-------|

  |       |       |       |        |       |       |       |
|--------------------------------|--------------------------------|
|--------------------------------|--------0-----------------------|
|--------------------------------|----------------3-------0-------|
|3-------------------------------|3-------------------------------|

  |       |       |       |        |       |       |       |
|--------------------------------|--------------------------------|
|--------0-----------------------|--------0-----------------------|
|----------------3-------0-------|----------------3-------0-------|
|3-------------------------------|3-------------------------------|

  |       |       |       |        |       |       |       |
|--------------------------------|--------------------------------|
|--------0-----------------------|--------0-----------------------|
|----------------3-------0-------|----------------3-------0-------|
|3-------------------------------|3-------------------------------|

  |       |       |       |        |       |       |       |
|--------------------------------|--------------------------------|
|--------0-----------------------|--------0-----------------------|
|----------------3-------0-------|----------------3-------0-------|
|3-------------------------------|3-------------------------------|

  |       |       |       |        |       |       |       |
|--------------------------------|--------0---------------5-------|
|--------0-----------------------|----------------3---------------|
|----------------3-------0-------|3-------------------------------|
|3-------------------------------|--------------------------------|

  |       |       |       |        |       |       |       |
|3-----------------------3-------|2-----------------------2-------|
|--------3-------1---------------|----------------0---------------|
|--------------------------------|--------0-----------------------|
|--------------------------------|--------------------------------|

  |       |       |       |        |       |       |       |
|0---------------0---------------|--------0---------------5-------|
|--------0---------------0-------|----------------3---------------|
|--------------------------------|3-------------------------------|
|--------------------------------|--------------------------------|

  |       |       |       |        |       |       |       |
|3-----------------------3-------|2-----------------------2-------|
|--------3-------1---------------|----------------0---------------|
|--------------------------------|--------0-----------------------|
|--------------------------------|--------------------------------|

  |       |       |       |        |       |       |       |
|--------------------------------|--------------------------------|
|--------------------------------|--------------------------------|
|--------------------------------|0-------0-------0-------0-------|
|3-------3-------3-------3-------|--------------------------------|

  |       |       |       |        |       |       |       |
|--------------------------------|--------------------------------|
|--------------------------------|0-------0-------0-------0-------|
|2-------2-------2-------2-------|--------------------------------|
|--------------------------------|--------------------------------|

  |       |       |       |        |       |       |       |
|--------------------------------|--------------------------------|
|--------0-----------------------|--------0-----------------------|
|----------------3-------0-------|----------------3-------0-------|
|3-------------------------------|3-------------------------------|

  |       |       |       |        |       |       |       |
|--------------------------------|--------------------------------|
|--------0-----------------------|--------0-----------------------|
|----------------3-------0-------|----------------3-------0-------|
|3-------------------------------|3-------------------------------|

  |       |       |       |        |       |       |       |
|--------------------------------|--------------------------------|
|--------0-----------------------|--------0-----------------------|
|----------------3-------0-------|----------------3-------0-------|
|3-------------------------------|3-------------------------------|

  |       |       |       |        |       |       |       |
|--------------------------------|--------------------------------|
|--------0-----------------------|--------0-----------------------|
|----------------3-------0-------|----------------3-------0-------|
|3-------------------------------|3-------------------------------|

  |       |       |       |        |       |       |       |
|--------0---------------5-------|3-----------------------3-------|
|----------------3---------------|--------3-------1---------------|
|3-------------------------------|--------------------------------|
|--------------------------------|--------------------------------|

  |       |       |       |        |       |       |       |
|2-----------------------2-------|0---------------0---------------|
|----------------0---------------|--------0---------------0-------|
|--------0-----------------------|--------------------------------|
|--------------------------------|--------------------------------|

  |       |       |       |        |       |       |       |
|--------0---------------5-------|3-----------------------3-------|
|----------------3---------------|--------3-------1---------------|
|3-------------------------------|--------------------------------|
|--------------------------------|--------------------------------|

  |       |       |       |        |       |       |       |
|2-----------------------2-------|--------------------------------|
|----------------0---------------|--------------------------------|
|--------0-----------------------|--------------------------------|
|--------------------------------|3-------3-------3-------3-------|

  |       |       |       |        |       |       |       |
|--------------------------------|--------------------------------|
|--------------------------------|--------------------------------|
|0-------0-------0-------0-------|2-------2-------2-------2-------|
|--------------------------------|--------------------------------|

  |       |       |       |        |       |       |       |
|--------------------------------|--------------------------------|
|0-------0-------0-------0-------|--------------------------------|
|--------------------------------|1-------1---------------1-------|
|--------------------------------|--------------------------------|

  |       |       |       |        |       |       |       |
|--------------------------------|0-------3---------------0-------|
|----------------0-------0-------|----------------1---------------|
|--------0-----------------------|--------------------------------|
|--------------------------------|--------------------------------|

  |       |       |       |        |       |       |       |
|0-------0-----------------------|--------------------------------|
|--------------------------------|----------------2-------2-------|
|----------------3-------3-------|2-------2-----------------------|
|--------------------------------|--------------------------------|

  |       |       |       |        |       |       |       |
|--------------------------------|0-------------------------------|
|----------------0-------0-------|--------------------------------|
|0-------0-----------------------|--------------------------------|
|--------------------------------|--------3-------3---------------|

  |       |       |       |        |       |       |       |
|--------------------------------|--------------------------------|
|--------0-----------------------|--------0-----------------------|
|----------------3-------0-------|----------------3-------0-------|
|3-------------------------------|3-------------------------------|

  |       |       |       |        |       |       |       |
|--------------------------------|--------0---------------5-------|
|--------0-----------------------|----------------3---------------|
|----------------3-------0-------|3-------------------------------|
|3-------------------------------|--------------------------------|

  |       |       |       |        |       |       |       |
|3-----------------------3-------|2-----------------------2-------|
|--------3-------1---------------|----------------0---------------|
|--------------------------------|--------0-----------------------|
|--------------------------------|--------------------------------|

  |       |       |       |        |       |       |       |
|0---------------0---------------|--------0---------------5-------|
|--------0---------------0-------|----------------3---------------|
|--------------------------------|3-------------------------------|
|--------------------------------|--------------------------------|

  |       |       |       |        |       |       |       |
|3-----------------------3-------|2-----------------------2-------|
|--------3-------1---------------|----------------0---------------|
|--------------------------------|--------0-----------------------|
|--------------------------------|--------------------------------|

  |       |       |       |        |       |       |       |
|--------------------------------|--------------------------------|
|--------------------------------|--------------------------------|
|--------------------------------|0-------0-------0-------0-------|
|3-------3-------3-------3-------|--------------------------------|

  |       |       |       |        |       |       |       |
|--------------------------------|--------------------------------|
|--------------------------------|--------------------------------|
|2-------2-------2-------2-------|1-------1-------1-------1-------|
|--------------------------------|--------------------------------|

  |       |       |       |        |       |       |       |
|--------------------------------|--------------------------------|
|--------------------------------|--------------------------------|
|0-------0-------0-------0-------|2-------2-------2-------2-------|
|--------------------------------|--------------------------------|

  |       |       |       |        |       |       |       |
|--------------------------------|--------------------------------|
|--------------------------------|0-------0-------0-------0-------|
|3-------3-------3-------3-------|--------------------------------|
|--------------------------------|--------------------------------|

  |       |       |       |        |       |       |       |
|--------------------------------|--------------------------------|
|--------------------------------|--------------------------------|
|--------------------------------|--------------------------------|
|3-------------------------------|--------------------------------|


Created with TablEdit http://www.tabledit.com/

     
Добавлено: 26.08.2013
Другие материалы по этой песне:
  • Аккорды и текст

Страница создана 20.08.2013
http://primanota.ru/carlos-santana/carnival-chords.htm
Привет, Гость.
Предлагаем пройти революционный курс по гитаре.
Подарок от PrimaNota.Ru, забирай!