PrimaNota.ru - самый крупный в мире бесплатный архив песенных текстов, аккордов, табулатур и нот


Carlos Santana - Oye mi canto - бас-таба, видео

Регистрация Запомнить меня
Войти через:  Facebook Google Twitter Vk Yandex Mail.ru

Carlos Santana - Oye mi canto - бас-таба, видео

Печатать
Просмотров: 103
SANTANA  -  Oye E Canto  basstab

TablEdited by Jan Bjorklund    jani_bjorklund@yahoo.se>
You are welcome to request for tabs!
Fingering and positions as suggested by TablEdit, please use common sense.



Tuning : E A D G 	Time Signature: 4/4

  |       |       |       |        |       |       |       |
|0-----0---------0-----0---------|0-----0---------0-----0---------|
|--------0---3-----------0---3---|--------0---3-----------0---3---|
|--------------------------------|--------------------------------|
|--------------------------------|--------------------------------|

  |       |       |       |        |       |       |       |
|0-----0---------0-----0---------|0-----0---------0-----0---------|
|--------0---3-----------3-0-3---|--------0---3-----------0---3---|
|--------------------------------|--------------------------------|
|--------------------------------|--------------------------------|

  |       |       |       |        |       |       |       |
|0-----0---------0-----0---------|0-----0---------0-----0-----0---|
|--------0---3-----------0---3---|--------0---3-----------3-0-----|
|--------------------------------|--------------------------------|
|--------------------------------|--------------------------------|

  |       |       |       |        |       |       |       |
|--------------------------------|--------------------------------|
|3-----3-----1---3-----3-----3---|1-----1---------1-----1---1-3-4-|
|--------3---------------3-------|--------1---4-----------1-------|
|--------------------------------|--------------------------------|

  |       |       |       |        |       |       |       |
|0-----0---------0-----0---------|0-----0---------0-----0-----0---|
|--------0---3-----------0---3---|--------0---3-----------0-------|
|--------------------------------|--------------------------------|
|--------------------------------|--------------------------------|

  |       |       |       |        |       |       |       |
|--------0---3-----------0---3---|--------2---5-----------2---5---|
|1-----1---------1-----1---------|3-----3---------3-----3---------|
|--------------------------------|--------------------------------|
|--------------------------------|--------------------------------|

  |       |       |       |        |       |       |       |
|--------0---3-----------0---3---|------------------------0-------|
|1-----1---------1-----1---------|1-----------3-------------------|
|--------------------------------|--------------------------------|
|--------------------------------|--------------------------------|

  |       |       |       |        |       |       |       |
|--------------------------------|--------------------------------|
|--------------------------------|3-----3-----0---3-----3-----0---|
|--------------------------------|--------3---------------3-------|
|--------------------------------|--------------------------------|

  |       |       |       |        |       |       |       |
|--------------------------------|0-----0---------0-----0---------|
|3-----3-----0---3-----3---0-3-4-|--------0---3-----------0---3---|
|--------3---------------3-------|--------------------------------|
|--------------------------------|--------------------------------|

  |       |       |       |        |       |       |       |
|0-----0---------0-------0---0---|--------------------------------|
|--------0---3-------0-3---------|3-----3-----0---3-----3-----0---|
|--------------------------------|--------3---------------3-------|
|--------------------------------|--------------------------------|

  |       |       |       |        |       |       |       |
|--------------------------------|0-----0-----0-------------------|
|3-----3-----0---3-----3-----0---|--------------------------------|
|--------3---------------3-------|--------------------------------|
|--------------------------------|--------------------------------|

  |       |       |       |        |       |       |       |
|--------------------------------|0-----0---------0-------0---0---|
|--------------------------------|--------0---3-------0-3---------|
|--------------------------------|--------------------------------|
|--------------------------------|--------------------------------|

  |       |       |       |        |       |       |       |
|0-----0---------0-------0---0---|0-----0---------0-------0---0---|
|--------0---3-------0-3---------|--------0---3-------0-3---------|
|--------------------------------|--------------------------------|
|--------------------------------|--------------------------------|

  |       |       |       |        |       |       |       |
|0-----0---------0-------0---0---|0-----0---------0-----0---------|
|--------0---3-------0-3---------|--------0---3-----------3-0-3---|
|--------------------------------|--------------------------------|
|--------------------------------|--------------------------------|

  |       |       |       |        |       |       |       |
|0-----0---------0-----0---------|0-----0---------0-----0---------|
|--------0---3-----------0---3---|--------0---3-----------0---3---|
|--------------------------------|--------------------------------|
|--------------------------------|--------------------------------|

  |       |       |       |        |       |       |       |
|0-----0---------0-----0-----0---|--------------------------------|
|--------0---3-----------3-0-----|3-----3-----1---3-----3-----3---|
|--------------------------------|--------3---------------3-------|
|--------------------------------|--------------------------------|

  |       |       |       |        |       |       |       |
|--------------------------------|0-----0---------0-----0---------|
|1-----1---------1-----1---1-3-4-|--------0---3-----------0---3---|
|--------1---4-----------1-------|--------------------------------|
|--------------------------------|--------------------------------|

  |       |       |       |        |       |       |       |
|0-----0---------0-----0-----0---|0-----0---------0-----0---------|
|--------0---3-----------0-------|--------0---3-----------3-0-3---|
|--------------------------------|--------------------------------|
|--------------------------------|--------------------------------|

  |       |       |       |        |       |       |       |
|0-----0---------0-----0---------|0-----0---------0-----0---------|
|--------0---3-----------0---3---|--------0---3-----------0---3---|
|--------------------------------|--------------------------------|
|--------------------------------|--------------------------------|

  |       |       |       |        |       |       |       |
|0-----0---------0-----0-----0---|--------------------------------|
|--------0---3-----------3-0-----|3-----3-----1---3-----3-----3---|
|--------------------------------|--------3---------------3-------|
|--------------------------------|--------------------------------|

  |       |       |       |        |       |       |       |
|--------------------------------|0-----0---------0-----0---------|
|1-----1---------1-----1---1-3-4-|--------0---3-----------0---3---|
|--------1---4-----------1-------|--------------------------------|
|--------------------------------|--------------------------------|

  |       |       |       |        |       |       |       |
|0-----0---------0-----0-----0---|--------0---3-----------0---3---|
|--------0---3-----------0-------|1-----1---------1-----1---------|
|--------------------------------|--------------------------------|
|--------------------------------|--------------------------------|

  |       |       |       |        |       |       |       |
|--------2---5-----------2---5---|--------0---3-----------0---3---|
|3-----3---------3-----3---------|1-----1---------1-----1---------|
|--------------------------------|--------------------------------|
|--------------------------------|--------------------------------|

  |       |       |       |        |       |       |       |
|------------------------0-------|--------------------------------|
|1-----------3-------------------|--------------------------------|
|--------------------------------|--------------------------------|
|--------------------------------|--------------------------------|

  |       |       |       |        |       |       |       |
|--------------------------------|--------------------------------|
|3-----3-----0---3-----3-----0---|3-----3-----0---3-----3---0-3-4-|
|--------3---------------3-------|--------3---------------3-------|
|--------------------------------|--------------------------------|

  |       |       |       |        |       |       |       |
|0-----0---------0-----0---------|0-----0---------0-------0---0---|
|--------0---3-----------0---3---|--------0---3-------0-3---------|
|--------------------------------|--------------------------------|
|--------------------------------|--------------------------------|

  |       |       |       |        |       |       |       |
|--------------------------------|--------------------------------|
|3-----3-----0---3-----3-----0---|3-----3-----0---3-----3-----0---|
|--------3---------------3-------|--------3---------------3-------|
|--------------------------------|--------------------------------|

  |       |       |       |        |       |       |       |
|0-------------------------------|0-----3-0-----7---5---3-0-------|
|--------------------------------|--------------------------------|
|--------------------------------|--------------------------------|
|--------------------------------|--------------------------------|

  |       |       |       |        |       |       |       |
|--------------------------------|--------------------------------|
|--------------1-3---------------|--------------------------------|
|------------3-------------------|--------------------------------|
|--------------------------------|--------------------------------|

  |       |       |       |        |       |       |       |
|--------------------------------|--------------------------------|
|--------------------------------|--------------------------------|
|--------------------------------|--------------------------------|
|--------------------------------|--------------------------------|

  |       |       |       |        |       |       |       |
|--------------------------------|--------------------------------|
|--------------------------------|--------------------------------|
|--------------------------------|--------------------------------|
|--------------------------------|--------------------------------|

  |       |       |       |        |       |       |       |
|0-----0-----0-------------------|--------------------------------|
|--------------------------------|--------------------------------|
|--------------------------------|--------------------------------|
|--------------------------------|--------------------------------|

  |       |       |       |        |       |       |       |
|--------------------------------|--------------------------------|
|--------------------------------|--------------------------------|
|--------------------------------|--------------------------------|
|--------------------------------|--------------------------------|

  |       |       |       |        |       |       |       |
|----------------------------0---|------------2---------------2---|
|----------------------0---------|------0---------------0---------|
|--------------------------------|--------------------------------|
|--------------------------------|--------------------------------|

  |       |       |       |        |       |       |       |
|------------0---------------0---|------------2---------------2---|
|------0---------------0---------|------0---------------0---------|
|--------------------------------|--------------------------------|
|--------------------------------|--------------------------------|

  |       |       |       |        |       |       |       |
|------------0---------------0---|------------2---------------2---|
|------0---------------0---------|------0---------------0---------|
|--------------------------------|--------------------------------|
|--------------------------------|--------------------------------|

  |       |       |       |        |       |       |       |
|------------0---------------0---|------------2---------------2---|
|------0---------------0---------|------0---------------0---------|
|--------------------------------|--------------------------------|
|--------------------------------|--------------------------------|

  |       |       |       |        |       |       |       |
|------------0---------------0---|------------2---------------2---|
|------0---------------0---------|------0---------------0---------|
|--------------------------------|--------------------------------|
|--------------------------------|--------------------------------|

  |       |       |       |        |       |       |       |
|------------0---------------0---|------------2---------------2---|
|------0---------------0---------|------0---------------0---------|
|--------------------------------|--------------------------------|
|--------------------------------|--------------------------------|

  |       |       |       |        |       |       |       |
|------------0---------------0---|------------2---------------2---|
|------0---------------0---------|------0---------------0---------|
|--------------------------------|--------------------------------|
|--------------------------------|--------------------------------|

  |       |       |       |        |       |       |       |
|------------0---------------0---|------------2---------------2---|
|------0---------------0---------|------0---------------0---------|
|--------------------------------|--------------------------------|
|--------------------------------|--------------------------------|

  |       |       |       |        |       |       |       |
|------------0---------------0---|------------2---------------2---|
|------0---------------0---------|------0---------------0---------|
|--------------------------------|--------------------------------|
|--------------------------------|--------------------------------|

  |       |       |       |        |       |       |       |
|------------0---------------0---|------------2---------------2---|
|------0---------------0---------|------0---------------0---------|
|--------------------------------|--------------------------------|
|--------------------------------|--------------------------------|

  |       |       |       |        |       |       |       |
|------------0---------------0---|------------2---------------2---|
|------0---------------0---------|------0---------------0---------|
|--------------------------------|--------------------------------|
|--------------------------------|--------------------------------|

  |       |       |       |        |       |       |       |
|------------0-------------------|------------------7-5-3-2-0-----|
|------0-------------3-----1-----|0---------------------------4---|
|--------------------------------|--------------------------------|
|--------------------------------|--------------------------------|

  |       |       |       |
|------------------------0-------|
|--------------------0-----------|
|--------------------------------|
|--------------------------------|


Created with TablEdit http://www.tabledit.com/

     
Добавлено: 06.09.2013
Другие материалы по этой песне:
  • Аккорды и текст

Страница создана 06.09.2013
http://primanota.ru/carlos-santana/oye-mi-canto-chords.htm
Привет, Гость.
Предлагаем пройти революционный курс по гитаре.
Подарок от PrimaNota.Ru, забирай!