PrimaNota.ru - самый крупный в мире бесплатный архив песенных текстов, аккордов, табулатур и нот


Carlos Santana - Whatever happens - таба, видео

Регистрация Запомнить меня
Войти через:  Facebook Google Twitter Vk Yandex Mail.ru

Carlos Santana - Whatever happens - таба, видео

Печатать
Просмотров: 163
"Whatever Happens" (Jackson/Riley/Williams)
Performed by Carlos Santana and Michael Jackson
>From "Invincible" album (2001)
Transcribed by Richard


This took me ages to figure out - quite an ambitious project
for me, but I think I have about 90% of it nailed. I don't
usually go for latin stuff, so there are some really high notes
on here that I don't often play... Anyway, here we go.


RAKED INTRO:
E:-----0------4-------------------
b:-----0------4-------------------
g:-----0------5-------------------
d:-----2------6-------------------
a:-----2------6-------------------
e:-----0------4-------------------


VERSE 1: "He gives another smile..."   VERSE 2: "Everything..."
E:--------------------------------     --------------
b:--------------------------------     --------------
g:--------------------------------     --------8-----
d:--------------------------------     ----7-9---9---
a:--------------------------------     --9---------9-
e:--------------------------------     --------------


CHORUS: "Whatever happens..."          POST-CHORUS
E:--1----1-2-4-6-6-6--------------     --------------
b:--3-----------------------------     --------------
g:--3-----------------------------     --11-11-11s8--
d:--3-----------------------------     --------------
a:--1-----------------------------     --------------
e:--------------------------------     --------------


PICKED FILL
E:---------11--14-----------------
b:-----11-------------------------
g:--------------------------------
d:--------------------------------
a:--------------------------------
e:--------------------------------


SOLO 1 (sort of)
E:-11~--12-11-9----------11-11--14--11--11--11-----14-16-18-18--------
b:--------------7-9-7-------------------------x--?------------?--?--9-
g:--------------------8-----------------------------------------------
d:--------------------------------------------------------------------
a:--------------------------------------------------------------------
e:--------------------------------------------------------------------

 >Whistle 

SOLO 2
E:--14p13p11- s t  -14-13-11-13-14x-14s16-14--9-11-14--16-14--18-
b:----------- e i  ----------------------------------------------
g:----------- v m  ----------------------------------------------
d:----------- e e  ----------------------------------------------
a:----------- n s  ----------------------------------------------
e:----------- )    ----------------------------------------------

 E:--16-14-11-11--18-19-18-16--16-14-11-11--16-14-11-16--
 b:------------------------------------------------------
 g:------------------------------------------------------
 d:------------------------------------------------------
 a:------------------------------------------------------
 e:------------------------------------------------------


ECHO BIT
E:-------14---18---16-------------
b:--16----------------------------
g:--------------------------------
d:--------------------------------
a:--------------------------------
e:--------------------------------


The OUTRO JAM is a bit fast, and I think it
goes up to fret 21 on the high E string


That's it! If you need them, lyrics can be found on any good MJ page.

The Original Supernaturals Fan-page:
http://www.geocities.com/kesmaster.geo

Let me know if you disagree with any of this, or if you have figured out
any other songs... (email address changes, so check to site above for
current contact details).

Hope you enjoy the song!

     
Добавлено: 21.11.2013
Другие материалы по этой песне:
  • Аккорды и текст

Страница создана 21.11.2013
http://primanota.ru/carlos-santana/whatever-happens-chords.htm
Привет, Гость.
Предлагаем пройти революционный курс по гитаре.
Подарок от PrimaNota.Ru, забирай!