PrimaNota.ru - самый крупный в мире бесплатный архив песенных текстов, аккордов, табулатур и нот


Carlos Santana - Abraxas - таба, видео

Регистрация Запомнить меня
Войти через:  Facebook Google Twitter Vk Yandex Mail.ru

Carlos Santana - Abraxas - таба, видео

Печатать
Просмотров: 202
                                      Abraxas (1970)
                                         Santana

________________________________________________________________________________________

Song List:
1. Singing Winds, Crying Beasts
2. Medley: Black Magic Woman/Gypsy Queen
3. Oye Como Va
4. Incident At Neshabur
5. Se A Cabo
6. Mother's Daughter
7. Samba Pa Ti
8. Hope You're Feeling Better
9. El Nicoya
________________________________________________________________________________________

/=slide up
\=slide down
b=bend
p=pulloff
h=hammeron
()=optional note
X=muted string

________________________________________________________________________________________
________________________________________________________________________________________
                 
                    *Singing Winds, Crying Beasts (Micheal Carabello)*

Intro (Where the Guitar comes in):
 (00:42)
|---------------------------------------------------------------------------|
|-13b15------15b13-10-(feedback)------------------12-h13--14-13b15b13p12----|
|----------------------------------------12h14---------------------------14-|
|---------------------------3p2-0-------------------------------------------|
|---------------------------------------------------------------------------|
|---------------------------------------------------------------------------|

|----------------------------------------------------------|
|--------------------------13b15~--15b13-------13b15b13-10-|
|-12--14-----12--14h15p14----------------14----------------|
|----------------------------------------------------------|
|----------------------------------------------------------|
|----------------------------------------------------------|

|--------------------------------------------------------------------|
|-10----------10----------10-12--10h12p10----------------------------|
|-----12--10------12--10------------------10h12----------------------|
|-------------------------------------------------10h12-(feedback)\--|
|--------------------------------------------------------------------|
|--------------------------------------------------------------------|

 (01:53)  (02:58)
|--------|----------------------------15-15-15-15-13-13-13-13-------|
|--------|-13b15-15-15-15-15-15-15-15-------------------------15-15-|
|--------|----------------------------------------------------------|
|-3p2-0--|----------------------------------------------------------|
|--------|----------------------------------------------------------|
|--------|----------------------------------------------------------|

 Guitar I
|-18b20-20-20-20----------18b20-20-20-20-20--|
|--------------------------------------------|
|--------------------------------------------|
|--------------------------------------------|
|--------------------------------------------|
|--------------------------------------------|
|                                            |
|                                            |
|Guitar II                                   |
|------------13b15--10h13p10-----------------|
|--------------------------------------------|
|--------------------------------------------|
|--------------------------------------------|
|--------------------------------------------|
|--------------------------------------------|

 (03:57)
|-----------------------15b17---------------|
|-13b15-15~(feedback)-----------------------|
|-------------------------------------------|
|-------------------------------------------|
|-------------------------------------------|
|-------------------------------------------|

________________________________________________________________________________________
________________________________________________________________________________________
________________________________________________________________________________________

          *Medley: Black Magic Woman/Gypsy Queen (Peter Green/Gabor Szabo)*

________________________________________________________________________________________


                           Black Magic Woman (Peter Green)

Intro (Organ Tab for Guitar):
|------------------------------------------|
|-13h15----13h15----12h15--13h15----13h15--|
|-------14-------14--------------14--------|
|------------------------------------------|
|------------------------------------------|
|------------------------------------------|

|------------------------------------------|
|-13h15----13h15----12h15--13h15----13h15--|
|-------14-------14--------------14--------|
|------------------------------------------|
|------------------------------------------|
|------------------------------------------|

Intro (Where the Guitar comes in) (00:10):
|----------------------------------------|
|-8p6------------------6h8p6-----8-------|
|---------7b9b7---------------------9b7--|
|----------------------------------------|
|----------------------------------------|
|----------------------------------------|

|-5---------------3-----------------5--------------3----------------10-|
|-----8---6\5---------6---5\3----------8---6\5---------6---5\3-----10--|
|-----------------------------------------------------------------10---|
|----------------------------------------------------------------12----|
|---------------------------------------------------------------12-----|
|--------------------------------------------------------------10------|

1st Guitar Solo:
|------------------------------------------------------------------|
|-15-13-15b13-10-13b15--b13p10------13b15---15b13p10---------------|
|----------------------------------------------------12-14b12p10-9-|
|------------------------------------------------------------------|
|------------------------------------------------------------------|
|------------------------------------------------------------------|

|-------12h13-12-13p12p10---------------------------10-------------------|
|-10-13-------------------13b15--15b13-10----13b15-----13-10-------------|
|------------------------------------------------------------12b14b12-10-|
|------------------------------------------------------------------------|
|------------------------------------------------------------------------|
|------------------------------------------------------------------------|

|-------10-13-13b15-----15b17---b15----13-----18b20-\--|
|----11-----------------------------15-----------------|
|-12---------------------------------------------------|
|------------------------------------------------------|
|------------------------------------------------------|
|------------------------------------------------------|

|-10----------------------------------------------------------10\---|
|-----------------10------------------------------------------10\---|
|-----14b12p10-12----12--10h12p10-----------------------------10\---|
|---------------------------------12-10--12-10----------------------|
|----------------------------------------------12-11-10\8h10--------|
|-------------------------------------------------------------------|

Keyboard Solo (Done in D minor)
                    
                       Dm
Got a black magic woman
                     C
Got a black magic woman
        Dm                                         A#
I gotta black magic woman, got me so blind I can't see

|----------------------|
|-----------6--5--3----|
|-3h5p3-----5--5--3----|
|----------------------|
|----------------------|
|----------------------|

             Dm                 C                                Dm
That she's a black magic woman, tryin' to make a devil out of me

                                Dm
Don't turn your back on me baby

|-10-10-10-----------10-10----|
|-10-10-10--8/10-----10-10----|
|-10-10-10--9/10-----10-10----|
|-----------------------------|
|-----------------------------|
|-----------------------------|

                              C
Don't turn you back on me baby
                     Dm                                               A#
Yes, don't turn your back one me baby, start messin' 'round with your tricks

|----------------------|
|-----------6--5--3----|
|-3h5p3-----5--5--3----|
|----------------------|
|----------------------|
|----------------------|

                Dm                   C                               Dm
Don't turn your back on me baby, you just might pick up my magic sticks


2nd Guitar Solo:
|------------------------------13p12p10----------------------|
|-13b15--15-13---15b13-10---------------13p12p10-------------|
|------------------------------------------------13p12p10-9--|
|------------------------------------------------------------|
|------------------------------------------------------------|
|------------------------------------------------------------|

|------------12h13p12p10----------13b15----15b17b15p13-15b17b15-13---18b20\-|
|------10-13-------------13b15----------------------------------------------|
|-9h10----------------------------------------------------------------------|
|---------------------------------------------------------------------------|
|---------------------------------------------------------------------------|
|---------------------------------------------------------------------------|

|-12h13p12p10-12h13p12p10----------------------------------------------------|
|-------------------------13b15-15-13-10-------------10----10-13-10----------|
|----------------------------------------14b12p10----10-------------14b12p10-|
|-------------------------------------------------12----12-------------------|
|----------------------------------------------------------------------------|
|----------------------------------------------------------------------------|

|-------------------------------------------10-----------------------|
|-13b15--15b17--13b15---------------13b15------13-10-----------------|
|----------------------14b12b14----------------------12--14b12p10-9--|
|--------------------------------------------------------------------|
|--------------------------------------------------------------------|
|--------------------------------------------------------------------|

|------------------------------10-----------------10-12-13b15-|
|-10-13-b-15--13b15-15b13p10---10--10----------11-------------|
|----------------------------------10-10----12----------------|
|-------------------------------------------------------------|
|-------------------------------------------------------------|
|-------------------------------------------------------------|

|-15b17---18b20---20b22-22-------------10---------10---------10-|
|---------------------------10~-----13------10-13------10-13----|
|---------------------------------------------------------------|
|---------------------------------------------------------------|
|---------------------------------------------------------------|
|---------------------------------------------------------------|

|-13p10--13p10-13p10------------------------------------------------------|
|--------------------13p10-13p10------------------------------------------|
|--------------------------------10p12-10p12-------------------------9h10-|
|--------------------------------------------12-10-------------10h12------|
|-----------------------------------------------------10h11h12------------|
|-------------------------------------------------------------------------|

|------------------------------|
|-----------------------10p8---|
|----------------9-10--------9-|
|----------10h12---------------|
|-10h11h12---------------------|
|------------------------------|

                         Dm
Got your spell on me baby
                         C
Got your spell on me baby
                  Dm                                      A#
Yes, you got your spell on me baby, turnin' my heart into stone

|----------------------|
|-----------6--5--3----|
|-3h5p3-----5--5--3----|
|----------------------|
|----------------------|
|----------------------|

  Dm                     C                           Dm
I need you so bad, magic woman I can't leave you alone

|-------------------------------------------------|
|-8p6------------------6h8p6-----8----------------|
|---------7b9b7---------------------9b7(feedback)-|
|-------------------------------------------------|
|-------------------------------------------------|
|-------------------------------------------------|

________________________________________________________________________________________

                                Gypsy Queen (Gabor Szabo)

Intro:
|-------------------------------------2--------------|
|-------------------------------------3--------------|
|-------------------------------------2--------------|
|-0-----0-----0-----0-----0-----0-----0--(feedback)--|
|----0-----0-----0-----0-----0-----0-----------------|
|----------------------------------------------------|

|-2h3p2-----2-----2h3p2-----2-------0-2/5-----2h3p2p0---2---|
|--------3--3------------3--3-----3-------------------3-3---|
|-----------2---------------2---------------------------2---|
|-----------0---------------0---------------------------0---|
|-----------------------------------------------------------|
|-----------------------------------------------------------|

|-------------------------------------2-----2/---|
|---3---1-1-1-1-----------------------3----------|
|-2---2---------0h2-----0-0-----------2----------|
|----------------------------4-4p2p0--0----------|
|------------------------------------------------|
|------------------------------------------------|

|-10----10----------------10----10----------10----10---------------|
|----13------13b15b13p10-----13----------------13------13b15b13p10-|
|----------------------------------14b12p10------------------------|
|------------------------------------------------------------------|
|------------------------------------------------------------------|
|------------------------------------------------------------------|

|-10----10---------------------------------15------15-b-17----14p10----|
|----13-------------------------------------------------------------15-|
|----------14b12p10----------9-----------------------------------------|
|--------------------12-10-----10-10h12--------------------------------|
|----------------------------------------------------------------------|
|----------------------------------------------------------------------|

|-22--22-22-22-22-22-22-22-22-22-22---22--22-22-22-22-22-22-22-22-22-22-|
|-----------------------------------------------------------------------|
|-----------------------------------------------------------------------|
|-----------------------------------------------------------------------|
|-----------------------------------------------------------------------|
|-----------------------------------------------------------------------|

|-2-----2-----2------0---3---0--2----0---3---0--2----0---3---0--2---|
|-3-----3-----3------1---3---2--3----1---3---2--3----1---3---2--3---|
|-2-----2-----2------0---0---2--2----0---0---2--2----0---0---2--2---|
|-0-----0-----0------0---0---2--2----0---0---2--2----0---0---2--2---|
|--------------------3---2---0-------3---2---0-------3---2---0------|
|------------------------3---------------3---------------3----------|

|-------------------------------------------------------------------------|
|-------------------------------------------------------------------------|
|-------------------------------------------------------------------------|
|-------------------------------------------------------------------------|
|-5--0-3-5--0-7-5--0-3-5--0-7-5--0-3-5--0-7-5--0-3-5--0-7-5--0-3-5--0-7-5-|
|-------------------------------------------------------------------------|

|--------------------------------------0--3--0----------------|
|--------------------------------------1--3--2----------------|
|--------------------------------------0--0--2----------------|
|--------------------------------------2--0--2----------------|
|-0-3-5--0-7-5--0-3-5--0-7-5--0-3-5----3--2--0-(feedback)-----|
|-----------------------------------------3-------------------|


________________________________________________________________________________________
________________________________________________________________________________________
________________________________________________________________________________________



                              *Oye Como Va (Tito Puente)*

Intro:
|-5-5--5-5--5-5-|-5-5--5-5--5-5-|
|-5-5--5-5--5-5-|-5-5--5-5--5-5-|
|-5-5--5-5--5-5-|-5-5--5-5--5-5-|
|-5-5--5-4--4-4-|-5-5--5-4--4-4-|
|---------------|---------------|
|---------------|---------------|

1st Guitar Solo (00:15):
|--------7-8-10-7----------------------7-8-10-7--------------|
|-10--10----------8h10----------10--10----------8h10---------|
|-----------------------5-7p5------------------------7b9b7-5-|
|------------------------------------------------------------|
|------------------------------------------------------------|
|------------------------------------------------------------|

|--------7-8-10-7----------------------7-8-10-7--------------|
|-10--10----------8h10----------10--10----------8h10---------|
|-----------------------5-7p5------------------------7b9b7-5-|
|------------------------------------------------------------|
|------------------------------------------------------------|
|------------------------------------------------------------|

|-5--5-5--5-5-5--5-5-5----------5--5--5-5---------5-|
|-5--5-5--5-5-5--5-5-5-7---5----5--5--5-5-7---5---5-|
|-5--5-5--5-5-5--5-5-5-7---5----5--5--5-5-7---5---5-|
|-5--5-5--5-5-5--5-5-5-7-7-5----5--5--5-5-7-7-5---5-|
|------------------------7------------------7-------|
|---------------------------------------------------|

played during singing
|-5-5--5-5--5-5-|-5-5--5-5--5-5-|
|-5-5--5-5--5-5-|-5-5--5-5--5-5-|
|-5-5--5-5--5-5-|-5-5--5-5--5-5-|
|-5-5--5-4--4-4-|-5-5--5-4--4-4-|
|---------------|---------------|
|---------------|---------------|

Oye como va, Muritmo
Bueno pa gozar, Mulata

Oye como va, Muritmo
Bueno pa gozar, Mulata

|-5--5-5--5-5-5--5-5-5-------|
|-5--5-5--5-5-5--5-5-5-7---5-|
|-5--5-5--5-5-5--5-5-5-7---5-|
|-5--5-5--5-5-5--5-5-5-7-7-5-|
|------------------------7---|
|----------------------------|

                            Guitar Solo

2nd Guitar Solo (00:57):
|---------------------------------------------------5-------|
|--------5-8-5-8-5h7----------------------5-8-5-8-7-----5-5-|
|------5--------------7---5-7p5---------5---------------5-5-|
|-5h7------------------------------5h7----------------------|
|-----------------------------------------------------------|
|-----------------------------------------------------------|

|-------------------------------------------------------5--h6h7--|
|--------5-8-5-8-5h7--------------------------5-8-5-8-7----------|
|------5--------------7-----5-7-7p5---------5--------------------|
|-5h7---------------------7---------7---5h7----------------------|
|----------------------------------------------------------------|
|----------------------------------------------------------------|

|-8-8-5-5--8-p5--8-p5-----5----------------8-8p5-5--8-p5-----5-----|
|---------------------5h7--------------------------------5h7---5---|
|------------------------------5-7-7p5---------------------------5-|
|----------------------------7---------7---------------------------|
|------------------------------------------------------------------|
|------------------------------------------------------------------|

|-8-8-5-5--8-p5--8-p5-----5----------------8-8p5-5--8-p5-----5--/12-|
|---------------------5h7--------------------------------5h7--------|
|------------------------------5-7-7p5------------------------------|
|----------------------------7---------7----------------------------|
|-------------------------------------------------------------------|
|-------------------------------------------------------------------|

|-8p5--8p5--8p5--8p5--8p5--8p7p5--8p5--8p5------------|
|-----------------------------------------------------|
|------------------------------------------5h7--5-7p5-|
|-----------------------------------------------------|
|-----------------------------------------------------|
|-----------------------------------------------------|

|------------------------------------------------------------------|
|--------------5---5-7--------------------------5---5-7------------|
|-5-5-5-5-5-5----5-----------------5-5-5-5-5-5----5----------------|
|-----------------------4-5--6--7------------------------4-5--6--7-|
|------------------------------------------------------------------|
|------------------------------------------------------------------|

|---------------------------------|
|--------------5---5-7------------|
|-5-5-5-5-5-5----5----------------|
|-----------------------4-5--6--7-|
|---------------------------------|
|---------------------------------|


|-5-5--5-7--7-7-|-5-5--5-7--7-7-|
|-5-5--5-7--7-7-|-5-5--5-7--7-7-|
|-5-5--5-7--7-7-|-5-5--5-7--7-7-|
|-5-5--5-7--7-7-|-5-5--5-7--7-7-|
|---------------|---------------|
|---------------|---------------|

(01:53)
|----------------------------|
|------7-----5------5------5-|
|----5-----5------5------5---|
|-7------6-----5------4------|
|----------------------------|
|----------------------------|

|----------------------------|
|------7-----5------5------5-|
|----5-----5------5------5---|
|-7------6-----5------4------|
|----------------------------|
|----------------------------|

|----------------------------|
|------7-----5------5------5-|
|----5-----5------5------5---|
|-7------6-----5------4------|
|----------------------------|
|----------------------------|

|---------------------------------|
|---------------------------------|
|-2-2-2-2-5-5-5-5-7-7-7-7-9-9-9-9-|
|-2-2-2-2-5-5-5-5-7-7-7-7-9-9-9-9-|
|-0-0-0-0-3-3-3-3-5-5-5-5-7-7-7-7-|
|---------------------------------|

Organ Solo Tab for Guitar:
|-15-----/15-/15-/15p12----------------------------------------|
|-----------------------15-15p13-------------------------------|
|--------------------------------14-12----12-------------------|
|--------------------------------------14----14-12-------------|
|--------------------------------------------------15-12-15-12-|
|--------------------------------------------------------------|

|-15----17b19---17-15-17-15-17-17b19-17b19-17b19-17b19-17-15-17-15-|
|------------------------------------------------------------------|
|------------------------------------------------------------------|
|------------------------------------------------------------------|
|------------------------------------------------------------------|
|------------------------------------------------------------------|

|-20--17-------------------------------------------------------------|
|--------20-17--20p17------------------17--17-15-15-17-17-17--17-17--|
|---------------------19-17-17-17b19---16--16------------------------|
|--------------------------------------------------------------------|
|--------------------------------------------------------------------|
|--------------------------------------------------------------------|

|-----------------------------------------------------------------------------|
|-17-17-17--17p15----15-17p15----15-17p15----15-17p15----15-17p15----15-17p15-|
|-----------------17----------17----------17----------17----------17----------|
|-----------------------------------------------------------------------------|
|-----------------------------------------------------------------------------|
|-----------------------------------------------------------------------------|

|-19--20----17--------------------------------------------|
|--------------20p17--------------------------------------|
|--------------------17h19p17----17h19p17-----------------|
|-----------------------------19----------19-17-----17----|
|-----------------------------------------------19-----19-|
|---------------------------------------------------------|

|-----17-17----17----17----17----17----17----17----17--15--17--19--17--15-|
|-15-----17----17----17----17----15----17----17----17--13--15--17--15--13-|
|-----------14----14----14----14----14----14----14------------------------|
|-------------------------------------------------------------------------|
|-------------------------------------------------------------------------|
|-------------------------------------------------------------------------|

|-17--19--17--19--17--19--17--15--17--19----|
|-15--17--15--17--15--17--15--13--15--17----|
|-------------------------------------------|
|-------------------------------------------|
|-------------------------------------------|
|-------------------------------------------|
(03:14)
|--------------------------------------------------------------------|
|---------------------------------8-8-8-8-10-10-10-10-12-12-12-12-15-|
|-2-2-2-2-5-5-5-5-7-7-7-7-9-9-9-9-7-7-7-7-9--9--9--9--11-11-11-11-14-|
|-2-2-2-2-5-5-5-5-7-7-7-7-9-9-9-9-5-5-5-5-7--7--7--7--10-10-10-10-12-|
|-0-0-0-0-3-3-3-3-5-5-5-5-7-7-7-7------------------------------------|
|--------------------------------------------------------------------|

3rd Guitar Solo:
|-5-/12-12---8--5-5--8-5-8p5-----5---------------8-8p5-5--8-5-----5--------------------|
|----------------------------5h7------------------------------5h7------------5---------|
|-------------------------------------5-7-7p5-----------------------7b9-7--5---7p5-5h7-|
|-----------------------------------7---------7----------------------------------------|
|--------------------------------------------------------------------------------------|
|--------------------------------------------------------------------------------------|

|-8-8-5-5--8-p5--8-p5-----5----------------8-8p5-5--8-p5-----5--/12-|
|---------------------5h7--------------------------------5h7--------|
|------------------------------5-7-7p5------------------------------|
|----------------------------7---------7----------------------------|
|-------------------------------------------------------------------|
|-------------------------------------------------------------------|

|-15b17-17-17b15-12-12h15-17--------------5-------5-------5------5------5-|
|----------------------------13\----8b10----8b10----8b10----8b10---8b10---|
|-------------------------------------------------------------------------|
|-------------------------------------------------------------------------|
|-------------------------------------------------------------------------|
|-------------------------------------------------------------------------|

|-------------------------------------------------------------------------|
|-5-5-------------------------5-----5-------------------------------------|
|-----7p5---5-7p5---7b9--7b9----7b9---5-5---5-5---------------------------|
|---------7-------7-------------------5-5-7-5-5-7-5h7-5h7-5h7p5-----------|
|---------------------------------------------------------------7p5---5---|
|-------------------------------------------------------------------8---8-|

|-----------------------|
|-5---5---5-5-7-7-5-5-5-|
|-5---5---5-5-7-7-5-5-5-|
|---7---7---------------|
|-----------------------|
|-----------------------|

|-8p5--8p5--8p5--12\15--8p5--10p5--8p5--8p7p5--8p5--8p5--8p5--8-5-5-8p5-8-5-8p5-|
|-------------------------------------------------------------------------------|
|-------------------------------------------------------------------------------|
|-------------------------------------------------------------------------------|
|-------------------------------------------------------------------------------|
|-------------------------------------------------------------------------------|
 
                                                huu!
|-5--5-5--5-5-5--5-5-5----------5--5--5-5-----------5-|
|-5--5-5--5-5-5--5-5-5-7---5----5--5--5-5-7---5-----5-|
|-5--5-5--5-5-5--5-5-5-7---5----5--5--5-5-7---5-----5-|
|-5--5-5--5-5-5--5-5-5-7-7-5----5--5--5-5-7-7-5-----5-|
|------------------------7------------------7---------|
|-----------------------------------------------------|


________________________________________________________________________________________
________________________________________________________________________________________
________________________________________________________________________________________


             *Incident At Neshabur (Alberto Gianquinto, Carlos Santana)*

Intro (Where the Guitar comes in) (00:19)
|-----------------------------------------------------------------------|
|-----------------------------5--3--------------------------------------|
|-----------------------------5--3--------------------------------------|
|-3-5-5----3-5-5----3-5-5-----5--3----3-5-5----3-5-5----3h5p3-----------|
|--------5--------5--------5-----------------5--------5-------5-3-1-----|
|-------------------------------------------------------------------3---|

|-----------------------------------------------------------------------|
|-----------------------------3--5--------------------------------------|
|-----------------------------3--5--------------------------------------|
|-3-5-5----3-5-5----3-5-5-----3--5----3-5-5----3-5-5----3h5p3-----------|
|--------5--------5--------5-----------------5--------5-------5-3-1-----|
|-------------------------------------------------------------------3---|

|-----------------------------------------------------------------------|
|-----------------------------5--3--------------------------------------|
|-----------------------------5--3--------------------------------------|
|-3-5-5----3-5-5----3-5-5-----5--3----3-5-5----3-5-5----3h5p3-----------|
|--------5--------5--------5-----------------5--------5-------5-3-1-----|
|-------------------------------------------------------------------3---|

|-----------------------------------------------------------------------|
|-----------------------------3--5--------------------------------------|
|-----------------------------3--5--------------------------------------|
|-3-5-5----3-5-5----3-5-5-----3--5----3-5-5----3-5-5----3h5p3-----------|
|--------5--------5--------5-----------------5--------5-------5-3-1-----|
|-------------------------------------------------------------------3---|

Organ Solo Guitar Work:
|--------------------------------------|------2--------2--------2--------2-|
|-3--3-5----3--3-5----3--3-5----3--3-5-|-5--5-2---5--5-2---5--5-2---5--5-2-|
|-2--2-4----2--2-4----2--2-4----2--2-4-|-4--4-----4--4-----4--4-----4--4---|
|-0--0------0--0------0--0------0--0---|-2--2-----2--2-----2--2-----2--2---|
|--------------------------------------|-----------------------------------|
|--------------------------------------|-----------------------------------|

Guitar Solo (01:53):
|-----------------------------10-12--------------12-15\12--------------|
|-----------------------10-12-------12-----12-13-------------13-p12-10-|
|---------------9-10-12------------------------------------------------|
|-------9-10-12--------------------------------------------------------|
|-10-12----------------------------------------------------------------|
|----------------------------------------------------------------------|

|-------12------------------------------------8p7----8p7----------7-8-10-11-12-|
|-12-13----13p12-10------------10----------10-----10-----10----10--------------|
|-----------------------7-7h10------7-7h10-------------------------------------|
|------------------------------------------------------------------------------|
|------------------------------------------------------------------------------|
|------------------------------------------------------------------------------|

|------------------------------------------------------------------------|
|-12-13p12p10-12----10-8------10-------------10---------10---------10----|
|----------------12------7h10----10---7-7h10-----7-7h10-----7-7h10----10-|
|------------------------------------------------------------------------|
|------------------------------------------------------------------------|
|------------------------------------------------------------------------|

|-------------------------------------------------12-15-12---------------------------|
|--------10------------10----------------12-13-15----------13-12----13-p12-----------|
|-7-7h10----10--7-7h10----10-7-10-7-10---------------------------14--------14--------|
|-----------------------------------------------------------------------------15-12--|
|------------------------------------------------------------------------------------|
|------------------------------------------------------------------------------------|

|----------12-15-12----------------------------------------1---3h4-3---1--1-----------|
|-12-13-15----------13b15----13b15-15-13p10----------------1---------5------4p1-------|
|-------------------------------------------12-10----10----2--------------------3p5---|
|-------------------------------------------------12-------3------------------------3-|
|-------------------------------------------------------------------------------------|
|-------------------------------------------------------------------------------------|

|----------------------------------------------------------------------------|
|----------------------------------5--3--------------------------------------|
|----------------------------------5--3--------------------------------------|
|1-2---3-5-5----3-5-5----3-5-5-----5--3----3-5-5----3-5-5----3h5p3-----------|
|-------------5--------5--------5-----------------5--------5-------5-3-1-----|
|------------------------------------------------------------------------3---|

|-----------------------------------------------------------------------|
|-----------------------------3--5--------------------------------------|
|-----------------------------3--5--------------------------------------|
|-3-5-5----3-5-5----3-5-5-----3--5----3-5-5----3-5-5----3h5p3-----------|
|--------5--------5--------5-----------------5--------5-------5-3-1-----|
|-------------------------------------------------------------------3---|


|-3-0---0---------------------|-3-0---0---------------------|
|-----1---1-0-1-0---0-------0-|-----1---1-0-1-0---0-------0-|
|-----------------0---0---0---|-----------------0---0---0---|
|-----------------------2-----|-----------------------2-----|
|-----------------------------|-----------------------------|
|-----------------------------|-----------------------------|

|-3-0---0-----------------------------------------------0--3------------------------|
|-----1---1-0-1-0---0-------0---3b5-----b3-1------0h1h3------3b5-(feedback)~--3p1p0-|
|-----------------0---0---0---------------------------------------------------------|
|-----------------------2-----------------------------------------------------------|
|-----------------------------------------------------------------------------------|
|-----------------------------------------------------------------------------------|

|-------0------0-0-0-3p0-0-0-5p0-0-0-7p0-0-0-8p0-0-0-10b12-|
|-0h1h3---1------------------------------------------------|
|----------------------------------------------------------|
|----------------------------------------------------------|
|----------------------------------------------------------|
|----------------------------------------------------------|

|-12-12-12-10h12p10---------------------------------------------15-13-12h13p12----|
|-------------------13-12---12-----12-13-15-13--13h15p13-----------------------15-|
|-------------------------9----------------------------------12-------------------|
|---------------------------------------------------------------------------------|
|---------------------------------------------------------------------------------|
|---------------------------------------------------------------------------------|

|----10-12--10h12p10------------------------------15-13-12h13p12----|
|-13-----------------13------------------------------------------15-|
|-----------------------12b14----14b12-12-12------------------------|
|-------------------------------------------------------------------|
|-------------------------------------------------------------------|
|-------------------------------------------------------------------|

|----10-12-10h12p10--------------0-3-0----------|
|-13----------------13-----------------1-0------|
|----------------------12b14--------------------|
|-----------------------------------------------|
|-----------------------------------------------|
|-----------------------------------------------|

Piano Solo Guitar chords:
C   G   C   G   C   D   C   D

|------------------0----------------0---|
|-0-(feedback)-------1-0------0-1-3-----|
|---------------------------------------|
|---------------------------------------|
|---------------------------------------|
|---------------------------------------|

|-7h10p7h10p7h10p7h10p7h10p7h10p7h10p7h10--8h10p8h10p8h10p8h10p8h10p8h10p8h10p8h10p8-|
|------------------------------------------------------------------------------------|
|------------------------------------------------------------------------------------|
|------------------------------------------------------------------------------------|
|------------------------------------------------------------------------------------|
|------------------------------------------------------------------------------------|

|-7h10p7h10p7h10p7h10p7h10p7h10p7h10p7h10--8h10p8h10p8h10p8h10p8h10p8h10p8h10p8h10p8-|
|------------------------------------------------------------------------------------|
|------------------------------------------------------------------------------------|
|------------------------------------------------------------------------------------|
|------------------------------------------------------------------------------------|
|------------------------------------------------------------------------------------|

Outro:
|-2h3-0----------------------|
|-------1-0------------------|
|-----------0----------------|
|-------------2--------------|
|---------------3-2----------|
|----------------------------|


________________________________________________________________________________________
________________________________________________________________________________________
________________________________________________________________________________________


                              *Se A Cabo (Chepito Areas)*

Intro:
 Guitar I (Keyboard Tab for Guitar)
|------------------------------|------------------------------|
|------------------------------|------------------------------|
|-------5------8-5---5-5-------|-------5------8-5---5-5-------|
|---6-8------------8--8--------|---6-8------------8--8--------|
|-8----------------------------|-8----------------------------|
|------------------------------|------------------------------|
|                                                             |
|                                                             |
|Guitar II                                                    |
|------------------------------|------------------------------|
|------------------------------|------------------------------|
|----------10------------10-12-|----------10------------10-12-|
|----------10------------10-12-|----------10------------10-12-|
|----------8-------------8-----|----------8-------------8-----|
|------------------------------|------------------------------|

 Guitar I (Keyboard Tab for Guitar)
|-------------------------------|-------------------------------|
|-------------------------------|-------------------------------|
|--------------6----------------|--------------6----------------|
|---5-6-8--------8-6-8p6-8------|---5-6-8--------8-6-8p6-8------|
|-6-----------------------------|-6-----------------------------|
|-------------------------------|-------------------------------|
|                                                               |
|                                                               |
|Guitar II                                                      |
|-------------------------------|-------------------------------|
|----------7/8------------------|----------7/8------------------|
|----------7/8-------------8--8-|----------7/8-------------8--8-|
|----------7/8-------------8--8-|----------7/8-------------8--8-|
|--------------------------6--6-|--------------------------6--6-|
|-------------------------------|-------------------------------|

 Guitar I (Keyboard Tab for Guitar)
|-------------------------------------|-13-13---11----11--------------|
|--------------------6----------------|------------13----13-11--13----|
|-------5------8-5-8---8-5-8--5-------|----------------------------13-|
|---6-8-------------------------------|-------------------------------|
|-8-----------------------------------|-------------------------------|
|-------------------------------------|-------------------------------|
|                                                                     |
|                                                                     |
|Guitar II                                                            |
|-------------------------------------|-------------------------------|
|-------------------------------------|-------------------------------|
|----------10-------------------10-12-|----------10------------10-12--|
|----------10-------------------10-12-|----------10------------10-12--|
|----------8--------------------8-----|----------8-------------8------|
|-------------------------------------|-------------------------------|

 Guitar I (Keyboard Tab for Guitar)
|-------------------------------|------------------------------------|
|-------------------------------|--------------------11-11-14-14-11--|
|--------------6----------------|--------------6-----10-10-13-13-10--|
|---5-6-8--------8-6-8p6-8------|---5-6-8--------8-6-8--8--11-11-8---|
|-6-----------------------------|-6----------------------------------|
|-------------------------------|------------------------------------|
|                                                                    |
|                                                                    |
|Guitar II                                                           |
|-------------------------------|------------------------------------|
|----------7/8------------------|----------7/8-----------------------|
|----------7/8-------------8--8-|----------7/8-------8--8--11-11-8---|
|----------7/8-------------8--8-|----------7/8-------8--8--11-11-8---|
|--------------------------6--6-|--------------------6--6--9--9--6---|
|-------------------------------|------------------------------------|

|---------------------------------|
|---------------------------------|
|-10-x--10-----8-10-8------8---8--|
|-10-x--10-----8-10-8------8-6-8--|
|-8--x--8---11--------11-8-----6--|
|---------------------------------|

Guitar work for Organ Solo:
|------------------------------------|------------------------------------|
|------------------------------------|------------------------------------|
|-10-8------8-------10-8------8------|-10-8------8-------10-8------8------|
|-10-8------8-------10-8------8------|-10-8------8-------10-8------8------|
|------11-8---11-8-------11-8---11-6-|------11-8---11-8-------11-8---11-6-|
|------------------------------------|------------------------------------|

Guitar Solo:
|-----------------------------------------------------------------------|
|-----------------------------------------------------------------------|
|-8h10-----p8h10p8---------------10p8----12p8----10b8-------------------|
|------------------10------9b10-------10------10------10----8-10p8------|
|--------------------------------------------------------11--------11-8-|
|-----------------------------------------------------------------------|

|--------------------15-16-18----18p15----15-18p15----15-18p15----15-18p15-|
|-----------------16-------------------17----------17----------17----------|
|-----------------15-------------------------------------------------------|
|---------1-/-----13-------------------------------------------------------|
|-----1h3------------------------------------------------------------------|
|-3h4----------------------------------------------------------------------|

|-18p13----13-18p13-------18b20b18--------18-------16----15-----------------|
|-------15----------15--------------18-18-------18----16----13--------------|
|--------------------------------------------------------------15b17~b15----|
|------------------------------------------------------------------------15-|
|---------------------------------------------------------------------------|
|---------------------------------------------------------------------------|

|--------------------------------------------------------|
|--------------------------------------------------------|
|-10-8------8-------10-8------8---------10-8------8------|
|-10-8------8-------10-8------8---------10-8------8------|
|------11-8---11-6-------11-8---11-6h8-------11-8---11-6-|
|--------------------------------------------------------|

|--------------------------------------------------------|
|--------------------------------------------------------|
|-10-8------10-8------10-8------10-8------10-8-----------|
|-10-8------10-8------10-8------10-8------10-8-----------|
|------11-8------11-8------11-8------11-8------11-8-8\6--|
|--------------------------------------------------------|

Drums Solo

|--------------|--------------|
|--------------|--------------|
|-10--8--10-10-|-10--8--10-10-|
|-10--8--10-10-|-10--8--10-10-|
|-8---6--8--8--|-8---6--8--8--|
|--------------|--------------|

  Se A Cabo      Se A Cabo      Se A Cabo      Se A Cabo    
|--------------|--------------|--------------|--------------|
|--------------|--------------|--------------|--------------|
|-10--8--10-10-|-10--8--10-10-|-10--8--10-10-|-10--8--10-10-|
|-10--8--10-10-|-10--8--10-10-|-10--8--10-10-|-10--8--10-10-|
|-8---6--8--8--|-8---6--8--8--|-8---6--8--8--|-8---6--8--8--|
|--------------|--------------|--------------|--------------|

|-------8-----|
|-6-9p6---6-9-|
|-------------|
|-------------|
|-------------|
|-------------|

  Se A Cabo      Se A Cabo
|--------------|--------------|
|--------------|--------------|
|-10--8--10-10-|-10--8--10-10-|
|-10--8--10-10-|-10--8--10-10-|
|-8---6--8--8--|-8---6--8--8--|
|--------------|--------------|

|-------8-8-8\-|
|-6-9p6-9-9-9\-|
|--------------|
|--------------|
|--------------|
|--------------|

Outro:
|------------------------------|------------------------------|
|------------------------------|------------------------------|
|----1-----0----1--------------|----1-----0----1--------------|
|-3------1----3--------1-----1-|-3------1----3--------1-----1-|
|------3----------1-3----1h3---|------3----------1-3----1h3---|
|------------------------------|------------------------------|

|------------------------------|------------------------------|
|------------------------------|------------------------------|
|----1-----0----1--------------|----1-----0----1--------------|
|-3------1----3--------1-----1-|-3------1----3--------1-----1-|
|------3----------1-3----1h3---|------3----------1-3----1h3---|
|------------------------------|------------------------------|

|--------------|--------------|----------------------|
|--------------|--------------|----------------------|
|-10--8--10-10-|-10--8--10-10-|-10--8--10-10----10---|
|-10--8--10-10-|-10--8--10-10-|-10--8--10-10----10---|
|-8---6--8--8--|-8---6--8--8--|-8---6--8--8-----8----|
|--------------|--------------|----------------------|


________________________________________________________________________________________
________________________________________________________________________________________
________________________________________________________________________________________


                           *Mother's Daughter (Gregg Rolie)*

Intro (Where the Guitar comes in) (00:15):
|-------------------------------------------------------------------|
|----4----------4------------------------3--------------------------|
|----5p3-2------3b5b3b5b3b5---------2----3----5p3\2h3b5--------2----|
|-3-----------3---------------------3----3---------------------3----|
|-----------------------------------3--------------------------3----|
|-------------------------------------------------------------------|

"aw, Yeah!"

Chorus:
|----------------------------------------------------------3-------|
|-6b8----6----6h8p6h8p6h8p6-4--\3h4p3----3h4p3-----------3---4p3---|
|-------------------------------------5--------5p3\2h3h5---------5-|
|------------------------------------------------------------------|
|------------------------------------------------------------------|
|------------------------------------------------------------------|

|------------------------------------------------|
|-8----10b11----10-\---6-4-4b6-b4----------------|
|---------------------------------5-3--3b5b3\2---|
|----------------------------------------------3-|
|------------------------------------------------|
|------------------------------------------------|

|-------------------------------------------------------3-------|
|-6b8----6----6h8p6h8p6h8p6-4\3h4p3---3h4p3-----------3---4p3---|
|-----------------------------------5-------5p3\2h3h5---------5-|
|---------------------------------------------------------------|
|---------------------------------------------------------------|
|---------------------------------------------------------------|

|-----------------------------------------------------|
|-8----10b11----10-\---6-4-4b6-b4------------------6--|
|---------------------------------5-3--3b5b3\2---5----|
|----------------------------------------------3------|
|-----------------------------------------------------|
|-----------------------------------------------------|

Chords:

F       C                         F
 Got no time for foolin with you, baby

|----------------------|
|----------------------|
|-------------8--10----|
|-----5-6-8---8--10----|
|---8---------6--8-----|
|-6--------------------|

F            C                F
 Your stupid game is about to end

|------------------------|
|------------------------|
|---------------8--10----|
|-----5-6-8-8---8--10----|
|---8-----------6--8-----|
|-6----------------------|


F              C                       F
 You played it out, thought you had it made

|--------------------------|
|--------------------------|
|-----------------8--10----|
|-------5-6-8-8---8--10----|
|-----8-----------6--8-----|
|-6-6----------------------|

F                            C              F
 And it looks like someone's passin' by again

|---------------------|
|---------------------|
|--------------5-6/8--|
|-------5-6-8---------|
|-----8---------------|
|-6-6-----------------|


|----------------------------------------------------------3-------|
|-6b8----6----6h8p6h8p6h8p6-4---\3h4p3---3h4p3-----------3---4p3---|
|--------------------------------------5-------5p3\2h3h5---------5-|
|------------------------------------------------------------------|
|------------------------------------------------------------------|
|------------------------------------------------------------------|

|------------------------------------------------------|
|-6h8----10b11----10-----------------------------------|
|-----------------------10-10-10-8-8-8-8b10b8------10--|
|---------------------------------------------7-10-----|
|------------------------------------------------------|
|------------------------------------------------------|

Chords:

F           C             F
 I left you standin' in a corner

|----------------------|
|----------------------|
|-------------8--10----|
|-----5-6-8---8--10----|
|---8---------6--8-----|
|-6--------------------|

F                      C             F
 She told me she would try to find a way

|--------------------------|
|--------------------------|
|-----------------8--10----|
|-------5-6-8-8---8--10----|
|-----8-----------6--8-----|
|-6-6----------------------|

F         C                      F
 I got to leave 'fore I get much older

|--------------------------|
|--------------------------|
|-----------------8--10----|
|-------5-6-8-8---8--10----|
|-----8-----------6--8-----|
|-6-6----------------------|

F                C                     F
 Cause she ain't moved in nearly forty days

|---------------------|
|---------------------|
|--------------5-6/8--|
|-------5-6-8---------|
|-----8---------------|
|-6-6-----------------|

"Yeah!"

|-------------------------------------------------|
|-8----6----6h8---8-6-6-6-4-4-4\3-3/4-4-6-6-6-4---|
|-----------------------------------------------5-|
|-------------------------------------------------|
|-------------------------------------------------|
|-------------------------------------------------|

|---------------------------------------------------|
|-8----10b11----10-\---6-4-4b6-b4-------------------|
|---------------------------------5-3--3b5b3\2----2-|
|----------------------------------------------3--3-|
|-------------------------------------------------3-|
|---------------------------------------------------|

F        C                        F
 I got a woman that's treatin' me better

|------------------------|
|------------------------|
|---------------8--10----|
|-----5-6-8-8---8--10----|
|---8-----------6--8-----|
|-6----------------------|

F              C                     F
 She takes her time and she ain't so cruel

|--------------------------|
|--------------------------|
|-----------------8--10----|
|-------5-6-8-8---8--10----|
|-----8-----------6--8-----|
|-6-6----------------------|

F      C                   F
 I got someone to take you over

|--------------------------|
|--------------------------|
|-----------------8--10----|
|-------5-6-8-8---8--10----|
|-----8-----------6--8-----|
|-6-6----------------------|

F            C                              F
 Your mother ain't so bad, what happened to you?

|---------------------|
|---------------------|
|--------------5-7/8--|
|-------5-6-8---------|
|-----8---------------|
|-6-6-----------------|


|---------------------------------------------------3-----------------|
|-6b8----6----6h8p6h8p6h8p6-4--\3h4p3---------4-------6p4-------------|
|-------------------------------------5--3b5----5b3-------5p3-5p3-----|
|-----------------------------------------------------------------5-3-|
|---------------------------------------------------------------------|
|---------------------------------------------------------------------|

|----------------------------------------------1-|
|-8----10b11----10-\---6-4-4b6-b4----------------|
|---------------------------------5-3--3b5b3\2---|
|------------------------------------------------|
|------------------------------------------------|
|------------------------------------------------|

|---------------------9b11-------------------------------------------------------|
|-8----11----11b13---------------------------------------------------------------|
|--------------------------------------------------------------------------------|
|-------------------------------------5-5-5-5----5-5-5----------8-8-8-8----8-8-8-|
|-------------------------------------5-5-5-5----5-5-5----------8-8-8-8----8-8-8-|
|----------------------------0-1-2-3-----------3--------3-4-5-6----------6-------|

|--------------------------|
|--------------------------|
|-5-----5---5-5-5----7-\---|
|-5-----5---5-5-5----7-\---|
|-3-----3---3-3-3----5-\---|
|--------------------------|

Guitar Solo:
|-------10---------10---------10---------10--------10-10-10---|
|----------13b15------13b15------13b15------13b15-------------|
|-------------------------------------------------------------|
|-0-----------------------------------------------------------|
|-------------------------------------------------------------|
|-------------------------------------------------------------|

|------------------------------7---------------------------------|
|-----8-8----8----6h8----6h8-----8-6h8----6-8p6-8p6-8p6-8p6-8p6--|
|---7------------------------------------------7---7---7---7---7-|
|-9--------------------------------------------------------------|
|----------------------------------------------------------------|
|----------------------------------------------------------------|

|-15-13-15-13-------13-------13-15p13----------13---10h13p10-13--------13--------13-|
|-------------13b15----13b15----------15-13h15------------------13h15-----13h15-----|
|-----------------------------------------------------------------------------------|
|-----------------------------------------------------------------------------------|
|-----------------------------------------------------------------------------------|
|-----------------------------------------------------------------------------------|

|--------13-------13---------------13/15-15-15-13/15-15-15-13/15-15-15-13/15-15-15-13\-|
|-13h15-----13h15----13b15b13-12---13/15-15-15-13/15-15-15-13/15-15-15-13/15-15-15-13\-|
|--------------------------------------------------------------------------------------|
|--------------------------------------------------------------------------------------|
|--------------------------------------------------------------------------------------|
|--------------------------------------------------------------------------------------|

|----------------------------------------------------------------------------------|
|-------------------------------------------------------------------10h12p10h12p10-|
|-5-5------------7--7-7-7-----------7--7-7-7-7------------7h9p7h9p7----------------|
|-7-5------------8--8-8-8-----------8--8-8-8-8-------------------------------------|
|------8-6-6-8-------------6-6-6-8--------------6-6-6-6----------------------------|
|----------------------------------------------------------------------------------|

|------------------------------------------------------------|
|-----------10h12p10h12p10--/12-12-12-12-12--12-12--10-10-12-|
|-7h9p7h9p7-----------------/12-12-12-12-12--12-12--10-10-12-|
|------------------------------------------------------------|
|------------------------------------------------------------|
|------------------------------------------------------------|

|------------------------------------------------------------------|
|-/12-12-12-12-12--15-15-15-15-15-/12-12-12-12-12--12-12--10-10-12-|
|-/12-12-12-12-12--14-14-14-14-14-/12-12-12-12-12--12-12--10-10-12-|
|------------------------------------------------------------------|
|------------------------------------------------------------------|
|------------------------------------------------------------------|

|------------------------------------------------------------15p13----15-|
|-/20--20-20-20--/20--20-20-20--/20--20-20-20--/19--19-19-19-------15----|
|-/19--19-19-19--/19--19-19-19--/19--19-19-19--/19--19-19-19-------------|
|------------------------------------------------------------------------|
|------------------------------------------------------------------------|
|------------------------------------------------------------------------|

Fade Away

________________________________________________________________________________________
________________________________________________________________________________________
________________________________________________________________________________________


                             *Samba Pa Ti (Carlos Santana)*

Intro:
|-----------------3-----------------2-2----2h3p2-------|
|----------3--4h5----1h3----------3--------------3-----|
|-2--4--5-----------------------4----------------------|
|-----------------------------5------------------------|
|------------------------------------------------------|
|------------------------------------------------------|

|-------------3-----------------2-2----2h3p2-------|
|-------3-4h5----1h3----------3--------------3-----|
|-2-4-5---------------------4----------------------|
|-------------------------5------------------------|
|--------------------------------------------------|
|--------------------------------------------------|


|-5h7--5h7p5---------------------------5h7p5h7p5----------------------------|
|------------8---5--8b10---10b12------------------8--5--8b10-b8-5-5--h7p5---|
|-------------------------------------------------------------------------7-|
|---------------------------------------------------------------------------|
|---------------------------------------------------------------------------|
|---------------------------------------------------------------------------|

|-----------------------------------------5h7-5h7p5-----------5--|
|-5-----------5--------------5--7p5-----------------8-5-8-7-8----|
|---7-5p4h5h7----------4-7----------7----------------------------|
|---------------7------------------------------------------------|
|----------------------------------------------------------------|
|----------------------------------------------------------------|




|-----------------3-----------------2-2----2h3p2-------|
|----------3--4h5----1h3----------3--------------3-----|
|-2--4--5-----------------------4----------------------|
|-----------------------------5------------------------|
|------------------------------------------------------|
|------------------------------------------------------|

|-------------3-----------------2-2----2h3p2-------12-12---12p10------------|
|-------3-4h5----1h3----------3--------------3----12-------------12p10------|
|-2-4-5---------------------4--------------------12--------------------10p9-|
|-------------------------5-------------------------------------------------|
|---------------------------------------------------------------------------|
|---------------------------------------------------------------------------|


|-5h7--5h7p5---------------------------5h7p5h7p5----------------------------|
|------------8---5--8b10---10b12------------------8--5--8b10-b8-5-5--h7p5---|
|-------------------------------------------------------------------------7-|
|---------------------------------------------------------------------------|
|---------------------------------------------------------------------------|
|---------------------------------------------------------------------------|

|--------------------------------------------5h7-5h7p5-----------5--|
|-5-----------5----------------------------------------8-5-8-7-8----|
|---7-5p4h5h7--------------7-9---7h9-7---7--------------------------|
|---------------7------7h9-------------9----------------------------|
|-------------------------------------------------------------------|
|-------------------------------------------------------------------|



|----------7----------8b10---10b12-------5h7-5h7p5-----------5-|
|-8-8-8-10----10b12--------------------------------8-7---7-8---|
|--------------------------------------------------------------|
|--------------------------------------------------------------|
|--------------------------------------------------------------|
|--------------------------------------------------------------|

|----------7----------8b10-b-8-------5h7-5h7p5-----------5-|
|-8-8-8-10----10b12----------------------------8-7---7-8---|
|----------------------------------------------------------|
|----------------------------------------------------------|
|----------------------------------------------------------|
|----------------------------------------------------------|

Guitar Solo (02:00):
|--------------------------------------------|
|---------8-10b12-------------8-10-----------|
|-7-7-7h9-------------7-7-7h9------7h9-9---9-|
|--------------------------------------------|
|--------------------------------------------|
|--------------------------------------------|

|-----------------------------------------|
|---------8-10b12-------------8-10--------|
|-7-7-7h9-------------7-7-7h9------7h9p9--|
|-----------------------------------------|
|-----------------------------------------|
|-----------------------------------------|

|---/10--10-10-10-10-10-8-7-7h8-----------7---------|
|-------------------------------10-7-8-10---8-------|
|-7-------------------------------------------7b9b7-|
|---------------------------------------------------|
|---------------------------------------------------|
|---------------------------------------------------|

|-----------------------------|
|---------------5-------------|
|-7b9-9b7-4-7-7---7p5---------|
|---------------------7p5-7---|
|---------------------------7-|
|-----------------------------|

|-/10--10-10----10----10----10----10-8-7-7h8-----------7---------|
|------------12----12----12----12------------10-7-8-10---8-------|
|----------------------------------------------------------7b9b7-|
|----------------------------------------------------------------|
|----------------------------------------------------------------|
|----------------------------------------------------------------|

|-12-12b10-10--10-10-10-10-10-10-10------------------------|
|-----------------------------------10-12p10---------10b12-|
|--------------------------------------------12p9-12-------|
|----------------------------------------------------------|
|----------------------------------------------------------|
|----------------------------------------------------------|

|-----------------------------------------------------------------------|
|-15--12-15-17b15-12-15-17-17b15p12-15-15-15----------------------------|
|--------------------------------------------14b16-16b14p12----12-14b16-|
|-----------------------------------------------------------14----------|
|-----------------------------------------------------------------------|
|-----------------------------------------------------------------------|

|-------------------------12----------------15b17b15p12-------------------------|
|----------------------------15-12----------------------15b17b15p12-------------|
|-14b16-16b14-14p12-14b16----------16b14p12-------------------------16b14p12----|
|----------------------------------------------------------------------------14-|
|-------------------------------------------------------------------------------|
|-------------------------------------------------------------------------------|

|-12--14-14--15-15--17-17--15-15--14-14--12-12\10-12-|
|----------------------------------------------------|
|----------------------------------------------------|
|----------------------------------------------------|
|----------------------------------------------------|
|----------------------------------------------------|

|-----------------------------------5-----5-------|
|-12h13p12\10h12p10\8-10p8-7----------------------|
|----------------------------9--7b9---7b9---9b7-4-|
|-------------------------------------------------|
|-------------------------------------------------|
|-------------------------------------------------|

|-------------------------------------------------------------|
|-15b17-17--12-12-15b17-17---------------------------------12-|
|--------------------------14b16b14p12--14b16b14p12----12-----|
|---------------------------------------------------14--------|
|-------------------------------------------------------------|
|-------------------------------------------------------------|

|-17b19---19b17-15-17-12\--12-14-15p14p12-14p12----12--------------|
|-----------------------------------------------15----15--13-12----|
|---------------------------------------------------------------14-|
|------------------------------------------------------------------|
|------------------------------------------------------------------|
|------------------------------------------------------------------|

|-----------------------------------|
|-----------------------------------|
|-12----12-14-16b14p12-14-12--------|
|----14----------------------14-14--|
|-----------------------------------|
|-----------------------------------|

|----------------------------------------------------|
|-/17-17\15-15\13-13\12-12\10-10\8-8\7---------------|
|--------------------------------------9p7-7\5-5-4---|
|--------------------------------------------------5-|
|----------------------------------------------------|
|----------------------------------------------------|

|-/7-10-7----7--------------------|
|---------10----------------------|
|--------------9-p7-9p7-9p7-9p7---|
|-------------------------------7-|
|---------------------------------|
|---------------------------------|

|---------------------------------------------------------------------|
|---------------------------------------------------------------------|
|-7h9p7-7h9p7-7h9p7-7h9p7-7h9p7-7h9p7-7h9p7-7h9p7-7h9p7-7h9p7-----/21-|
|------7-----7-----7-----7-----7-----7-----7-----7-----7-----7-7------|
|---------------------------------------------------------------------|
|---------------------------------------------------------------------|

|-24-24-22-22-20-20-19-19\--17-17-15-14-12--|
|-------------------------------------------|
|-------------------------------------------|
|-------------------------------------------|
|-------------------------------------------|
|-------------------------------------------|

|-------------------12-------------12-------------12-------------12----------|
|-15b17b15p12-12-12----15p12----12----15p12----12----15p12----12----15p14----|
|----------------------------14-------------14-------------14-------------14-|
|----------------------------------------------------------------------------|
|----------------------------------------------------------------------------|
|----------------------------------------------------------------------------|

|-------17b15p12-------------------15-14-12------------12--------------------|
|-12-------------12--15p12------------------15p12-15\------------------------|
|----12--------------------14-12--------------------------16b14p12-12----12\-|
|---------------------------------------------------------------------14-----|
|----------------------------------------------------------------------------|
|----------------------------------------------------------------------------|

|-----------------------------------------------------|
|-----12-13----12-------12----------------------------|
|-14--------14----12-14----12-14-14-------------------|
|-----------------------------------14-14--15.5b14-14-|
|-----------------------------------------------------|
|-----------------------------------------------------|

|-12------12--12h14--12h14p12----------------------12h14-12h14p12----|
|----15-----------------------15---12-15-17b15b17-----------------15-|
|--------------------------------------------------------------------|
|--------------------------------------------------------------------|
|--------------------------------------------------------------------|
|--------------------------------------------------------------------|

|-------------------------------------------------------|
|-12-15-------------------------------------------------|
|-------16b14p12-14-16b14p12-14-16b14p12-14-16b14p12-14-|
|-------------------------------------------------------|
|-------------------------------------------------------|
|-------------------------------------------------------|

|----------------------------------------------------------12----------15\/-|
|----------------------------------------------15b17-17-12----15p12----15\/-|
|-14b16-16-14b16-16-14b16-16-14b16-16-14b16-16----------------------14------|
|---------------------------------------------------------------------------|
|---------------------------------------------------------------------------|
|---------------------------------------------------------------------------|

(Fade Away)
|-3p2p0-------------------|
|-------3-0---------------|
|------------0------------|
|--------------4-0-2------|
|---------------------0-2-|
|-------------------------|


________________________________________________________________________________________
________________________________________________________________________________________
________________________________________________________________________________________


                        *Hope You're Feeling Better (Gregg Rolie)*

Intro (Where the Guitar comes in) (00:11) (Wah-Pedal in use):
|---------------------------------12--\-----------------------------------12--|
|----------------------------------12-\-----------------------------------12--|
|-----------------------------------12\-----------------------------------12--|
|------5---7----------5---5-5------------------5---7----------5---5-5---------|
|-5h7----7--------5h7---7-----7-----------5h7----7--------5h7---7-----7-------|
|-----------------------------------------------------------------------------|

Chords (if there's a space between guitar and lyrics,
then it is played after, but if there is no space, then
it is during the lyrics above):

Em
Is that you?

|--------------|
|--------------|
|-9-9----------|
|-----9p7------|
|---------10p7-|
|--------------|

Em                 G  A
Eyes slowly fading

Em
Is that you?

|---------------------|
|-5-5-----------------|
|---------------------|
|-----7p5h7p5h7p5h7p5-|
|---------------------|
|---------------------|

Em                     G  A
Your mind full of tears

Em
Is that you?

|---------------------|
|-5-5-----------------|
|---------------------|
|-----7p5h7p5h7p5h7p5-|
|---------------------|
|---------------------|

Em                        G  A
Searchin' for a good time

Em
Is that you?

|---------------------|
|-5-5-----------------|
|---------------------|
|-----7p5h7p5h7p5h7p5-|
|---------------------|
|---------------------|

Em                          G
Waiting for all these years

A       G                   Em
 Well I hope you're feeling better

|-------------------------------------|
|-15b17-17-15b17-17-15-12-------------|
|-------------------------16b14p12----|
|----------------------------------14-|
|-------------------------------------|
|-------------------------------------|

A       G                   Em
 Yes, I hope you're feeling good

|-17b19-b17-19-17-15--17p15----|
|---------------------------17-|
|------------------------------|
|------------------------------|
|------------------------------|
|------------------------------|


  A       G                   Em
   Yes, I hope you're feeling better
|----------------------------------|
|---------13b15---15b17------------|
|-12b14----------------------------|
|----------------------------------|
|----------------------------------|
|----------------------------------|

Em
Is that you?

|---------------------|
|-5-5-----------------|
|---------------------|
|-----7p5h7p5h7p5h7p5-|
|---------------------|
|---------------------|

Em                     G  A
Lookin' cross the ocean

Em
Is that you?

|---------------------|
|-5-5-----------------|
|---------------------|
|-----7p5h7p5h7p5h7p5-|
|---------------------|
|---------------------|

Em                             G  A
Thinkin' nothing's really there

Em
Is that you?

|---------------------|
|-5-5-----------------|
|---------------------|
|-----7p5h7p5h7p5h7p5-|
|---------------------|
|---------------------|

Em                      G  A
Waitin' for the sunshine

Em
Is that you?

|---------------------|
|-5-5-----------------|
|---------------------|
|-----7p5h7p5h7p5h7p5-|
|---------------------|
|---------------------|

Em                       G  A
When all you see is glare

A     G                   Em
And I hope you're feelin' better

|-12--------------------15b17b15-12-------------|
|----15b17-17--15b17-17-------------15p12-------|
|-----------------------------------------14----|
|--------------------------------------------14-|
|-----------------------------------------------|
|-----------------------------------------------|

A       G                   Em
 Yes, I hope you're feeling good

|-17b19-b17-19-17-15--17p15-----------|
|---------------------------17--20b22-|
|-------------------------------------|
|-------------------------------------|
|-------------------------------------|
|-------------------------------------|

  A       G                   Em
   Yes, I hope you're feeling better
|-------------------------15-------|
|---------13b15---15b17------17----|
|-12b14----------------------------|
|----------------------------------|
|----------------------------------|
|----------------------------------|

Guitar Solo (01:32) (Wah-Pedal):
|------------------3-3---------------------------------------------3-3-------|
|-5p3-5------5p3h5-----5p3-5------5p3---------------5p3-5------3h5-----5p3-5-|
|-------------------------------------4p2-4----------------------------------|
|----------------------------------------------------------------------------|
|----------------------------------------------------------------------------|
|--------------------------------------------0-------------------------------|

|--------------|-----------------------------------------------15b17-17-17b15-12--15-|
|-5p3----------|-12h15--12--------------15b17-17----15p12----------------------------|
|-----4p2-4----|-----------14p12----12-----------------------------------------------|
|--------------|-----------------14--------------------------------------------------|
|--------------|---------------------------------------------------------------------|
|------------0-|---------------------------------------------------------------------|

|----------------------------------------------|
|-15b17-b15p12-------------------12------12h15-|
|--------------14b16--b14----12----12----------|
|-------------------------14---------14--------|
|----------------------------------------------|
|----------------------------------------------|

|-------12-------12-------12-------12-------12-------12-------12-------12-|
|-12h15----12h15----12h15----12h15----12h15----12h15----12h15----12h15----|
|-------------------------------------------------------------------------|
|-------------------------------------------------------------------------|
|-------------------------------------------------------------------------|
|-------------------------------------------------------------------------|

|-------12-------12-------12-14p12----12----------------------------------------|
|-12h15----12h15----12h15----------15----15p12-------------------------14-------|
|----------------------------------------------12-14-14b16b14p12----12-14-12----|
|----------------------------------------------------------------12----------12-|
|-------------------------------------------------------------------------------|
|-------------------------------------------------------------------------------|

|---------------------------------------------------------------------------|
|----------15b17--------------14p12-----------------15b17-17----------15b17-|
|-14b16-16-------16b14----12--14p12----12-14b16-16-----------14b16-16-------|
|----------------------14-----------14--------------------------------------|
|---------------------------------------------------------------------------|
|---------------------------------------------------------------------------|

|-------------------------------------------------------------------------|
|----------15b17-17----------15b17-17----------15b17-17----------15b17-17-|
|-14b16-16----------14b16-16----------14b16-16----------14b16-16----------|
|-------------------------------------------------------------------------|
|-------------------------------------------------------------------------|
|-------------------------------------------------------------------------|

|----------------------------------------------15b17b15-12-17b19--20b22-|
|----------15b17-17--15-12----------------------------------------------|
|-14b16-16-----------------16b14p12-----14b16---------------------------|
|-----------------------------------14----------------------------------|
|-----------------------------------------------------------------------|
|-----------------------------------------------------------------------|

|-15p12----12-------------------------------------------------------|
|-------15----15p12-15p12--12----------------12\10/12---12\10/12-\--|
|------------------------14--14-12-14p12-----12\11/12---12\11/12-\--|
|---------------------------------------14--------------------------|
|-------------------------------------------------------------------|
|-------------------------------------------------------------------|

Em
Is that you?

|---------------------|
|-5-5-----------------|
|-----4p2p0-2p0-------|
|---------------------|
|---------------------|
|---------------------|

Em                     G  A
Who never saw your baby

Em
Is that you?

|---------------------|
|-5-5-----------------|
|---------------------|
|-----7p5h7p5h7p5h7p5-|
|---------------------|
|---------------------|

Em                    G  A
Who never had a friend

Em
Is that you?

|---------------------|
|-5-5-----------------|
|---------------------|
|-----7p5h7p5h7p5h7p5-|
|---------------------|
|---------------------|

Em                  G  A
Movin' to a new town

Em
Is that you?

|---------------------|
|-5-5-----------------|
|---------------------|
|-----7p5h7p5h7p5h7p5-|
|---------------------|
|---------------------|

Em                                G
Will diamonds replace your friends

G        A                   Em
 Well, I hope you're feelin' better

|-12--------------------------------------------|
|----15b17-17--15b17-17-15-12-15p12-------------|
|-----------------------------------16b14p12----|
|--------------------------------------------14-|
|-----------------------------------------------|
|-----------------------------------------------|

G       A                   Em
 Yes, I hope you're feelin' good

|-17b19---19--19b17p15----15b17-|
|----------------------17-------|
|-------------------------------|
|-------------------------------|
|-------------------------------|
|-------------------------------|

G       A                   Em
 Well I hope you're feelin' good
|--------------------------------|
|---------13b15---15b17----------|
|-12b14--------------------------|
|--------------------------------|
|--------------------------------|
|--------------------------------|



|----------------------------------------------|
|----------------------------------------------|
|----------------------------------------------|
|------------------2----------------------2----|
|-0h2----0---0-----------0h2----0---0----------|
|----------3---3-0----------------3---3-0------|

|-----------------------------------------------------|
|-----------------------------------------------------|
|-----------------------------------------------------|
|--------------------------------------------------2--|
|-0h2----0---0----0h2----0---0----0h2----0---0--------|
|----------3---3-----------3---3-----------3---3-0----|

|---------------------------------12--\-----------------------------------12--|
|----------------------------------12-\-----------------------------------12--|
|-----------------------------------12\-----------------------------------12--|
|------5---7----------5---5-5------------------5---7----------5---5-5---------|
|-5h7----7--------5h7---7-----7-----------5h7----7--------5h7---7-----7-------|
|-----------------------------------------------------------------------------|


2nd Guitar Solo:
|-12------------------------------12----------------12-----------------------15-|
|----15------------------------------15h17----12-12----15-12--------15p12-15----|
|-------14b16b14p12----12---14b16----------------------------14b16--------------|
|-------------------14----------------------------------------------------------|
|-------------------------------------------------------------------------------|
|-------------------------------------------------------------------------------|

|-12-------12------------------------------------------12-14-12-------------|
|----12-15----15-12--12h15p12----------------------17--12-14-12-------------|
|-----------------------------14-14b16-12----14b16-----12-14-12-14b16-14-12-|
|-----------------------------------------14--------------------------------|
|---------------------------------------------------------------------------|
|---------------------------------------------------------------------------|

|-------12-------12-------12-------12-------12-------12-------12-x-|
|-12h15----12h15----12h15----12h15----12h15----12h15----12h15----x-|
|------------------------------------------------------------------|
|------------------------------------------------------------------|
|------------------------------------------------------------------|
|------------------------------------------------------------------|

|-------12------------------------------------------------------------|
|-12h15----15-12-------------------------------12----14----15-b-17-15-|
|----------------14b16b14p12-------12----14---------------------------|
|----------------------------14-------14----14----14----14------------|
|---------------------------------------------------------------------|
|---------------------------------------------------------------------|

|-------------------------|
|-------------------------|
|-14b16-16-14-14-12-12----|
|----------------------14-|
|-------------------------|
|-------------------------|

Outro:
|--------------------15b17b15p12-17b19---20b22---14-15p14-12-12----------------------|
|---------------------------------------------------------------15b17-17-15p12-------|
|--------12----14--------------------------------------------------------------14----|
|-12h14-----14--------------------------------------------------------------------14-|
|------------------------------------------------------------------------------------|
|------------------------------------------------------------------------------------|

|-------14-17-14----------------------------12--12-12-12------------------------------|
|-14-15-----------15b17b15------------------12--12-12-12-----12\10/12---12\10/12--12\-|
|--------------------------14b16b14p12------12--12-12-12-----12\11/12---12\11/12--12\-|
|--------------------------------------14----------------14---------------------------|
|-------------------------------------------------------------------------------------|
|-------------------------------------------------------------------------------------|


________________________________________________________________________________________
________________________________________________________________________________________
________________________________________________________________________________________


                               *El Nicoya (Chepito Areas)*

(00:20):
|-3---5-5---3---5-5--4--3----3---5-5---3---5-5--4--3---|
|-3---5-5---3---5-5--4--3----3---5-5---3---5-5--4--3---|
|-3---5-5---3---5-5--4--3----3---5-5---3---5-5--4--3---|
|-5---7-7---5---7-7--6--5----5---7-7---5---7-7--6--5---|
|-5---7-7---5---7-7--6--5----5---7-7---5---7-7--6--5---|
|------------------------------------------------------|

|-3---5-5---3---5-5--4--3----3---5-5---3---5-5--4--3---|
|-3---5-5---3---5-5--4--3----3---5-5---3---5-5--4--3---|
|-3---5-5---3---5-5--4--3----3---5-5---3---5-5--4--3---|
|-5---7-7---5---7-7--6--5----5---7-7---5---7-7--6--5---|
|-5---7-7---5---7-7--6--5----5---7-7---5---7-7--6--5---|
|------------------------------------------------------|
Добавлено: 24.09.2013
Другие материалы по этой песне:
  • Аккорды и текст

Страница создана 24.09.2013
http://primanota.ru/carlos-santana/abraxas-chords.htm
Привет, Гость.
Предлагаем пройти революционный курс по гитаре.
Подарок от PrimaNota.Ru, забирай!