PrimaNota.ru - самый крупный в мире бесплатный архив песенных текстов, аккордов, табулатур и нот


Cardigans - My Favorite Game - текст песни, таба, видео

Регистрация Запомнить меня
Войти через:  Facebook Google Twitter Vk Yandex Mail.ru

Cardigans - My Favorite Game - текст песни, таба, видео

Печатать
Просмотров: 604
The Cardigans - My Favorite Game (Acoustic version)

Capo on the 3d fret. This is a mix between two acoustic versions of the song.


E---||------------------------------------------------------------------|
B---||-----------1-----1\0--------------1-----1\0--------------1--------|
G---||*--------0/2-----2----------------0-----0----------------2--------|
D---||*-----2-------2-------2--------2-----2-------2--------2-----2-----|
A---||---0---------------------0----------------------------------------|
E---||----------------------------3-------------------3--2--------------|


                                        4x
E---------------------------------------||--||--------------------------|
B---1\0--------------1-----------3------||--||---------1-----------1----|
G---2----------------2-----------4-----*||--||*--------2-----------2----|
D--------2--------3-----3-----5-----5--*||--||*-----2-----2-----2-------|
A---------------------------------------||--||---0-----------0----------|
E-----------2--1-----------3------------||--||--------------------------|

E-----------------------------------------------------------------------|
B------------1-----------1/3-----------0-----------0-----------0--------|
G------------2-----------2-------------0-----------0-----------0--------|
D---2-----3-----3-----3-------3-----0-----0-----0-----0-----2-----2-----|
A------0-----------0----------------------------------------------------|
E--------------------------------3-----------3-----------0--------------|


                 2x
E----------------||-----------------------------------------------------|
B---------0------||--------1-----------1-----------1-----------1--------|
G---------0-----*||--------2-----------2-----------2-----------2--------|
D------2-----2--*||-----2-----2-----2-----2-----3-----3-----3-----3-----|
A----------------||--0-----------0-----------0-----------0--------------|
E---3------------||-----------------------------------------------------|

E-----------------------------------------------------------------------|
B---------1-----------1-----------0-----------0-----0-----3--3----------|
G---------2-----------2-----------0-----------0-----1-----1--1-----1----|
D------0-----0-----0-----0-----0-----0-----0-----------2----------------|
A------------------------------------------------2----------------------|
E---2-----------2-----------3-----------3-----------------------0-------|

E---0--|----------------------------------------------------------------|
B---3--|--------------0/1-----------------------------------------------|
G---1--|-----------2-------2--------------------------------------------|
D------|--------2-------------2-----------------------------------------|
A------|-----0----------------------------------------------------------|
E------|-------------------------3/5------------------------------------|

Any comments or questions? morthel@hotmail.com
Добавлено: 18.07.2012
Другие материалы по этой песне:
  • Аккорды и текст

Страница создана 18.07.2012
http://primanota.ru/cardigans/my-favorite-game-chords.htm
Привет, Гость.
Предлагаем пройти революционный курс по гитаре.
Подарок от PrimaNota.Ru, забирай!