PrimaNota.ru - самый крупный в мире бесплатный архив песенных текстов, аккордов, табулатур и нот


Cardigans - Hanging Around - текст песни, бас-таба, видео

Регистрация Запомнить меня
Войти через:  Facebook Google Twitter Vk Yandex Mail.ru

Cardigans - Hanging Around - текст песни, бас-таба, видео

Печатать
Просмотров: 333
Авторы музыки: Peter Svensson
Авторы текста: Peter Svensson, Nina Persson
Hey,
All the credits are to micturion!!
I just changed the way to play it to what I think is easier.
Bye.



Verse
G |--------------------------------|--------------------------------|
D |--------------------------------|--------------------------------|
A |-6-6---4-6-6-----6-6---4-6-6----|-4-4-----4-4-----2-2-----2-2---4|
E |---------------4---------------4|-------4-------2-------2--------|

G |--------------------------------|
D |--------------------------------|
A |-6-6---4-6-6---4-6--------------|
E |--------------------------------|

Chorus
G |--------------------------------|-------------------------------------------------|
D |-----------------9-9-9-9-9-9-9-9|10-10-10-10-10-10-10-10--------------------------|
A |-7-7-7-7-7-7-7-7----------------|-------------------------10-10-10-10-10-10-10-10-|
E |--------------------------------|-------------------------------------------------|

G |--------------------------------|--------------------------------|
D |--------------------------------|--------------------------------|
A |-7-7-7-7-7-7-7-7----------------|--------------------------------|
E |-----------------7-7-7-7-7-7-7-7|8-8-8-8-8-8-8-8--3-3-3-3-3-3-3--|

G |--------------------------------|--------------------------------|
D |--------------------------------|--------------------------------|
A |-6-6-6-6-6-6-6-6----------------|-----------------9-9-9-9-9-9-9-9|
E |-----------------6-6-6-6-6-6-6-6|7-7-7-7-7-7-7-7-----------------|

G |--------------------------------|--------------------------------|
D |--------------------------------|9-9-9-9-9-9-9-9-----------------|
A |-6-6-6-6-6-6-6-6----------------|-----------------9-9-9-9-9-9-9-9|
E |-----------------6-6-6-6-6-6-6-6|--------------------------------|

G |--------------------------------|
D |--------------------------------|
A |--------------------------------|
E |9-9-9-9-9-9-9-9--7-7-7-7-7-7-7-7|

Outro A
G |--------------------------------|
D |--------------------------------|
G |-------------9/--2-2-2-2-2-2-2-2|
D |--------------------------------|

Outro B
G |--------------------------------|--------------------------------|
D |--------------------------------|--------------------------------|
G |-6-6-6-6-6----------------------|-9-9-9-9-9----------------------|
D |-----------6-6-6-7-7-7-7-7-7-7-7|-----------9-9-9-7-7-7-7-7-7-7-7|


[00:42] Verse
[00:54] Chorus

[01:52] Verse (Play the first bar twice)
[02:07] Chorus

[03:04] Outro A
[03:08] Outro B 4x (But end halfway the last bar)
Добавлено: 21.07.2012
Другие материалы по этой песне:

Страница создана 29.02.2012
http://primanota.ru/cardigans/hanging-around-chords.htm
Привет, Гость.
Предлагаем пройти революционный курс по гитаре.
Подарок от PrimaNota.Ru, забирай!