PrimaNota.ru - самый крупный в мире бесплатный архив песенных текстов, аккордов, табулатур и нот


Cardigans - A Good Horse - текст песни, таба, видео

Регистрация Запомнить меня
Войти через:  Facebook Google Twitter Vk Yandex Mail.ru

Cardigans - A Good Horse - текст песни, таба, видео

Печатать
Просмотров: 202
Авторы музыки: Peter Svensson
Авторы текста: Nina Persson
Artist: The Cardigans
Song: A Good Horse
Album: Long Gone Before Daylight
Tabbed by: Colin Boylan (HairyJapeneseGoldfish)
Date: 17/9/03
Email: colin_boylan@hotmail.com

I think this song is played with a telecaster.

              ** Capo 1st fret **

Intro:
e|------------------------------------------
b|--x---x-x----------------x--x--x--x-x-----
g|--x---x-x--0h2---0-------x--x--x--x-x-----
d|--x---x-x--0h2---0--0----x--x--x--x-x-----
a|--x---x-x--0-0---0--2----x--x--x--x-x-----
E|--------------------3---------------------

e|-------------------------------------------
b|-----------------x-x-x---x-x---------------
g|--0-h-2--0-------x-x-x---x-x--0h2--0-----x-
d|--0-h-2--0--0----x-x-x---x-x--0h2--0--0--x-
a|--0-h-0--0--2----x-x-x---x-x--0-0--0--2--x-
E|------------3-------------------------3----

e|-------------------------------------------
b|-------------------------------------------
g|----2--------------------------------------
d|----2-----5--------------------------------
a|----0-----5--------------------------------
E|----------3--------------------------------

Verse Riff:
e|-----------------------------------------------
b|-----------------------------------------------
g|-------4---------------------------------------
d|---2s4----2--0----------0-h-2--0---0--repeat a
a|----------------2--2-2-------------2--few-times
E|-----------------------------------3-----------

e|----------------------------|----------------
b|----------------------------|----------------
g|--2------------------4------|-------2--------
d|--2---2----5----7----4------|-------2----5---
a|--0---2----5----7----2------|-------0----5---
E|--2---0----3----5-----------|--7s/0------3---
    *
    |_ dont think this chord is right but if anyone
       figures it out email me please.


Chorus: same as verse then this
e|---------------------------------------3------
b|--------2--0-------2--0--------3--0----3------
g|--------2--0-------2--0--------2--0----0------
d|---2s4-----2--2s4-----2---2s4-----2--4-0------
a|-----------2----------2-----------2--4-2------
E|-----------0----------0-----------0--2-3------

Cool Bass part.

Solo:
e|--------------------------------------------------
b|---7-----------------7------------------7---------
g|---9^(12)-~~~~hold---9^(12)-~~~~ hold-----9^(12)r-
d|--------------------------------------------------
a|--------------------------------------------------
E|--------------------------------------------------

                     quick bend up and quick release
                       *                  *
e|-------------10-----------------10-------------
b|-------------------12^(14)r-----------12^(14)r-
g|--7------s11----11----------s11----11----------
d|-----9-----------------------------------------
a|-----------------------------------------------
E|-----------------------------------------------

e|-----------7----7------------------------------
b|--7--------10~--10^(12)------------------------
g|--9^(12)---------------------------------------
d|-----------------------------------------------
a|-----------------------------------------------
E|-----------------------------------------------

Thats all the parts done. Some parts are repeated
throughout the song. Remember a 7th fret is a 8th
on your guitar. i tabbed it with a capo in mind.
Hope your not too confused..

_________________________________________________________________
     
Добавлено: 28.10.2013
Другие материалы по этой песне:
  • Аккорды и текст

Страница создана 16.06.2012
http://primanota.ru/cardigans/a-good-horse-chords.htm
Привет, Гость.
Предлагаем пройти революционный курс по гитаре.
Подарок от PrimaNota.Ru, забирай!