PrimaNota.ru - самый крупный в мире бесплатный архив песенных текстов, аккордов, табулатур и нот


Cardigans - Closing Time - текст песни, таба, видео

Регистрация Запомнить меня
Войти через:  Facebook Google Twitter Vk Yandex Mail.ru

Cardigans - Closing Time - текст песни, таба, видео

Печатать
Просмотров: 29
Уроки эстрадного вокала в Санкт-Петербурге
[Outro]

e|-----------------------------0---|-------------------------------|
B|---2-----0-----0-0h1-0---------0-|-2-----2-0-----0-0h1-0---------|
G|-----2-----0-----------2-1-------|---2-------0-----------2-1-----|
D|-------2-----2-------------2-----|-----2-------2-----------------|
A|-0---------------0-------0-------|-0-------0-------0-------0-----|
E|---------------------------------|-------------------------------|

   Life,           greatest of all   Life,           strongest of all
e|-----------------------------0---|-----------------------------0-|
B|---2-----0-----0-0h1-0---------0-|-2-----2-0-----0-0h1-0---------|
G|-----2-----0-----------2-1-------|---2-------0-----------2-1-----|
D|-------2-----2-------------2-----|-----2-------2-------------2---|
A|-0---------------0-------0-------|-0-------0-------0-------0-----|
E|---------------------------------|-------------------------------|

   But at the same time, most delicate time
e|---0-------------0---------|
B|-0---1---0-----0---1---0---|
G|-------2---0---------0-----|
D|---3-----2---2---3-----2---|
A|---------------------------|
E|---------------------------|

   could well end         in a
e|---------------------------|
B|-------------0-------------|
G|-0-------------------------|
D|-----------3---------------|
A|---------------------------|
E|---------4-----------------|

   moment...
e|-------------------------0-|
B|---2-----0-----0-0h1-0---0-|
G|-----2-----0-----------2-1-|
D|-------2-----2-----------2-|
A|-0---------------0-------2-|
E|-------------------------0-|
(End the last chord abruptly)

************************************

| h   Hammer-on

************************************
Добавлено: 15.12.2017
Другие материалы по этой песне:
  • Аккорды и текст

Страница создана 27.02.2012
http://primanota.ru/cardigans/closing-time-chords.htm
Привет, Гость.
Предлагаем пройти революционный курс по гитаре.
Подарок от PrimaNota.Ru, забирай!