PrimaNota.ru - самый крупный в мире бесплатный архив песенных текстов, аккордов, табулатур и нот


Carcass - Fermenting Innards - текст песни, таба, видео

Регистрация Запомнить меня
Войти через:  Facebook Google Twitter Vk Yandex Mail.ru

Carcass - Fermenting Innards - текст песни, таба, видео

Печатать
Просмотров: 158
Carcass - Fermenting innards

.  - palm mute                
() - Peel sessions version
/* - Pick scrape

Tuning: Standart B

Riff 1 4x
|-----------------------------------|
|-----------------------------------|
|-----------------------------------|
|-----------------------------------|
|-2-2-5-----4--3-3-2-2-5-----4-3----|
|-0-0---3-2----1-1-0-0---3-2---1----|
 (. .)        (. . . .)     

Riff 2 1x

|-----------------------------------|
|-----------------------------------|
|-----------------------------------|
|-----------------------------------|
|-2-------2----3--3-3--6-6-6--------|
|-0-0-0-0-0--0-1--1-1--4-4-4--------|
    . . .    .

Repeat Riff 1 1x

Repeat Riff 2 1x

Repeat Riff 1 1x

Repeat Riff 2 4x

Repeat Riff 1 6x

Riff 3 4x

|-----------------------------------|
|-----------------------------------|
|-----------------------------------|
|-----------------------------------|
|-----------------------------------|
|-00000000111111110000113344443311--|

Riff 4 8x

|-----------------------------------|
|-----------------------------------|
|-----------------------------------|
|-----------------------------------|
|-2-2-6-5-2-2-3-3-------------------|
|-0-0-4-3-0-0-1-1-------------------|

Peel sessions version is:

|-----------------------------------|
|-----------------------------------|
|-----------------------------------|
|-----------------------------------|
|-------6-5-------3-3---------------|
|-00000-4-3-00000-1-1---------------|
  .....     .....


|-----------|
|-----------|
|-----------|
|-----------|
|-2----/*---|
|-0----/*---|

Repeat Riff 3 4x

Repeat Riff 4 8x

Riff 5 6x

|-----------------------------------|
|-----------------------------------|
|-----------------------------------|
|-----------------------------------|
|-2---6-6-3--3-5-6-5----------------|
|-0---4-4-1--1-3-4-3----------------|

Riff 6 4x

|-----------------------------------|
|-----------------------------------|
|-----------------------------------|
|-----------------------------------|
|-2-2-2-2-3-3-3-3-2-2-3-5-6-6-5-3---|
|-0-0-0-0-1-1-1-1-0-0-1-3-4-4-3-1---|
 (. . . . . . . . . . . . . . . .)

Repeat Riff 3 4x

Repeat Riff 4 8x

|---------|
|---------|
|---------|
|---------|
|-2-------|
|-0-------|

End.

Добавлено: 20.07.2012
Другие материалы по этой песне:

Страница создана 13.03.2012
http://primanota.ru/carcass/fermenting-innards-chords.htm
Привет, Гость.
Предлагаем пройти революционный курс по гитаре.
Подарок от PrimaNota.Ru, забирай!