PrimaNota.ru - самый крупный в мире бесплатный архив песенных текстов, аккордов, табулатур и нот


Carcass - Edge Of Darkness - аккорды и текст, таба, видео

Регистрация Запомнить меня
Войти через:  Facebook Google Twitter Vk Yandex Mail.ru

Carcass - Edge Of Darkness - аккорды и текст, таба, видео

Печатать
Просмотров: 190
Edge Of Darkness
Carcass
Solo 1

|------12-9----------------------------------------------------------------------12-17-12-------|
|-5/(9)-----10----------------------------------------------------------------13----------13----|
|--------------9-----------------------------------------------------------14----------------14-|
|----------------12-11-----------------------------------------12----12-14~---------------------|
|----------------------13-12-10--------------14-12-14-15-14-15----15----------------------------|
|-------------------------------13-12-10-9-6~---------------------------------------------------|



|-------------------------------12p9-15p10-12p9-15p10-12h15p12h15p12--------|
|-/(10)-14p10-15p11-14p10-15p11--t----t-----t----t-------------------15-14~-|
|--------t-----t-----t-----t------------------------------------------------|
|---------------------------------------------------------------------------|
|---------------------------------------------------------------------------|
|---------------------------------------------------------------------------|



|-15b(17)r-13h15p13h15p13-12-13-12----------------------------------|
|----------------------------------15-14----------------------------|
|----------------------------------------15-14-12-------------------|
|-------------------------------------------------15p14h15p14-------|
|-------------------------------------------------------------17-16-|
|-------------------------------------------------------------------|



Solo 2

|------------------------------------------------------------------------|
|---------------------------18-------18-------18-------16h17-16----16fb-|
|-----*---------------------17-------17-------17----------------17-------|
|-5/7~~-----------------X-X----X-X-X----X-X-X----X-X-X-------------------|
|-------7h8p7----7---*---------------------------------------------------|
|-------------10---8~~---------------------------------------------------|



|-----------15-17-15-16p15----15------------------17-19fb-19p17p15-------------------------|
|-/17-16-18----------------17----17-16-16fb~~-/19------------------19p18p17-17p16----20fb~~|
|---------------------------------------------------------------------------------17-------|
|------------------------------------------------------------------------------------------|
|------------------------------------------------------------------------------------------|
|------------------------------------------------------------------------------------------|



Solo 3

|-5/-17-15----20b(22)-20b(22)~-17-19----17----------------------------------------------|
|----------17------------------------20----20-19-17----17-20p17----17-------------------|
|---------------------------------------------------20----------20----20-19-17----19-17~|
|------------------------------------------------------------------------------19-------|
|---------------------------------------------------------------------------------------|
|---------------------------------------------------------------------------------------|



|-----------------------------------------------14h15p14----14---------------------------------|
|-----------------------16h17p16----16-------17----------17----17-16-17--20b-19b-17b-16b-------|
|--------------------------------18----18-15----------------------------------------------12b~~|
|-19p17----17----------------------------------------------------------------------------------|
|-------19----19-18-15~------------------------------------------------------------------------|
|----------------------------------------------------------------------------------------------|
Добавлено: 23.07.2012
Другие материалы по этой песне:

Страница создана 04.03.2012
http://primanota.ru/carcass/edge-of-darkness-chords.htm
Привет, Гость.
Предлагаем пройти революционный курс по гитаре.
Подарок от PrimaNota.Ru, забирай!