PrimaNota.ru - самый крупный в мире бесплатный архив песенных текстов, аккордов, табулатур и нот


Cannibal Corpse - The Time To Kill Is Now - таба, видео

Регистрация Запомнить меня
Войти через:  Facebook Google Twitter Vk Yandex Mail.ru

Cannibal Corpse - The Time To Kill Is Now - таба, видео

Печатать
Просмотров: 293
Уроки эстрадного вокала в Санкт-Петербурге
Авторы музыки: Alex Webster
Авторы текста: Alex Webster
------------------------------¦------¦--------------------------------------|
------------------------------¦------¦--------------------------------------|
------------------------------¦------¦--------------------------------------|
-------------------10&11------¦------¦--------------------------------------|
-9-7777-99--55-7-7--8&-9-777--¦------¦-7-7-999---6-------------11-11-11-11--|
-7-5555---88---5-5-------555--¦--X3--¦-5-5-----8---8-5-6-6-6-6--------------|
pm.. pm. ... . . . . . . trem..............

------------------------------¦------¦------------------------------------------|
------------------------------¦------¦------------------------------------------|
------------------------------¦------¦------------------------------------------|
-------------------10&11------¦------¦---------------------5555----5555----5555-|
-9-7777-99--55-7-7--8&-9-777--¦------¦-7-7-999---6------------------------------|
-7-5555---88---5-5-------555--¦--X3--¦-5-5-----8---8-5-6666----6666----6666-----|
pm.. pm. ... . . . . . . trem....................

-------------------------------------------------------------------------------|
-------------------------------------------------------------------------------|
-------------------------------------------------------------------------------|
---------------6-----8---------------6-----8--------5-5-5---7'6---------5-5-5--|
---------------4-----6---------------4-----6------7---------5'4-8-----7--------|
-4-0-0-0-7-4-0---0-0---4-0-0-0-7-4-0---0-0---0-00---------0-----6-0-0----------|
pm. . . . . . . . . . . . . . . . . . .. trem... . . . trem....
------------|
------------|
------------|
---7'6------|
---5'4-8----|
-0-----6-0--|Continued From Above
. .

-------------------------------------------------------------------------------|
-------------------------------------------------------------------------------|
-------------------------------------------------------------------------------|
---------------6-----8---------------6-----8--------5-5-5---7'6---------5-5-5--|
---------------4-----6---------------4-----6------7---------5'4-8-----7--------|
-4-0-0-0-7-4-0---0-0---4-0-0-0-7-4-0---0-0---0-00---------0-----6-0-0----------|
pm. . . . . . . . . . . . . . . . . . .. trem... . . . trem....
------------|
------------|
------------|
---7'6------|
---5'4-8----|
-0-----6-0--|Continued From Above
. .

------------------------------¦------¦--------------------------------------|
------------------------------¦------¦--------------------------------------|
------------------------------¦------¦--------------------------------------|
-------------------10&11------¦------¦--------------------------------------|
-9-7777-99--55-7-7--8&-9-777--¦------¦-7-7-999---6-------------11-11-11-11--|
-7-5555---88---5-5-------555--¦--X3--¦-5-5-----8---8-5-6-6-6-6--------------|
pm.. pm. ... . . . . . . trem..............

------------------------------¦------¦------------------------------------------|
------------------------------¦------¦------------------------------------------|
------------------------------¦------¦------------------------------------------|
-------------------10&11------¦------¦---------------------5555----5555----5555-|
-9-7777-99--55-7-7--8&-9-777--¦------¦-7-7-999---6------------------------------|
-7-5555---88---5-5-------555--¦--X3--¦-5-5-----8---8-5-6666----6666----6666-----|
pm.. pm. ... . . . . . . trem....................


-------------------------------------------------------------------------------|
-------------------------------------------------------------------------------|
-------------------------------------------------------------------------------|
---------------6-----8---------------6-----8--------5-5-5---7'6---------5-5-5--|
---------------4-----6---------------4-----6------7---------5'4-8-----7--------|
-4-0-0-0-7-4-0---0-0---4-0-0-0-7-4-0---0-0---0-00---------0-----6-0-0----------|
pm. . . . . . . . . . . . . . . . . . .. trem... . . . trem....
------------|
------------|
------------|
---7'6------|
---5'4-8----|
-0-----6-0--|Continued From Above
. .

-------------------------------------------------------------------------------|
-------------------------------------------------------------------------------|
-------------------------------------------------------------------------------|
---------------6-----8---------------6-----8--------5-5-5---7'6---------5-5-5--|
---------------4-----6---------------4-----6------7---------5'4-8-----7--------|
-4-0-0-0-7-4-0---0-0---4-0-0-0-7-4-0---0-0---0-00---------0-----6-0-0----------|
pm. . . . . . . . . . . . . . . . . . .. trem... . . . trem....

--------------------------------------------------|
--------------------------------------------------|
--------------------------------------------------|
---7'6---------5-5-5---7'6---------5-5-5---7'6----|
---5'4-8-----7---------5'4-8-----7---------5'4-8--|
-0-----6-0-0---------0-----6-0-0---------0-----6--|
pm . . trem... . . . trem... .

---------------------------------------------------------------|
---------------------------------------------------------------|
---------------------------------------------------------------|
-----------------------------7-------10------------------------|
-9-----5-6-------------9-------9--------9-----5-6--------------|
---8-7-----6-8-6-8-6-8---8-7-----8-7------8-7-----6-8-6-8-6-8--|
trem..... pm . . . trem......................pm . . .

--------------------------------------------------------------------------------|
--------------------------------------------------------------------------------|
--------------------------------------------------------------------------------|
-------7-------10-----------------------------7-------10------------------------|
-9-------9--------9-----5-6-------------9-------9--------9-----5-6--------------|
---8-7-----8-7------8-7-----6-8-6-8-6-8---8-7-----8-7------8-7-----6-8-6-8-6-8--|
trem......................pm . . . trem......................pm . . .

--------------------------------------------------|
--------------------------------------------ph----|
--------------------------------------ph-----^----|
-------7-------10----------------------^-----3----|
-9-------9---------5-2-3-2---2---------4----------|
---8-7-----8-7-------------1---3-3-4-4---000------|
trem............pm. . . . . . . . . . ...

----------------------------------------------------------|
--------------------------ph--------------------------ph--|
--------------------ph-----^--------------------ph-----^--|
---------------------^-----3---------------------^-----3--|
-5-2-3-2---2---------4-------5-2-3-2---2---------4--------|
---------1---3-3-4-4---000-----------1---3-3-4-4---000----|x3
pm. . . . . . . . . ... . . . . . . . . . . ...


--------------------------------------------|
--------------------------ph------------ph--|
--------------------ph-----^--------ph---^--|
---------------------^-----3--ph-----^---7--|
-5-2-3-2---2---------4---------^-----6------|
---------1---3-3-4-4---000---0-5-0-0---0----|
. . . . . . . . . . ... . . . .

-------------------------------¦------¦----------------|
------------ph-------------ph--¦------¦------------ph--|
--------ph---^---------ph---^--¦------¦--------ph---^--|
--ph-----^---7---ph-----^---7--¦------¦--ph-----^---7--|
---^-----6--------^-----6------¦------¦---^-----6------|
-0-5-0-0---0----0-5-0-0---0----¦--X3--¦-0-5-0-0---0----|
. . . . . . . .

-------------------------------------------------------------------------------|
-------------------------------------------------------------------------------|
-------------------------------------------------------------------------------|
---------------6-----8---------------6-----8--------5-5-5---7'6---------5-5-5--|
---------------4-----6---------------4-----6------7---------5'4-8-----7--------|
-4-0-0-0-7-4-0---0-0---4-0-0-0-7-4-0---0-0---0-00---------0-----6-0-0----------|
pm. . . . . . . . . . . . . . . . . . .. trem... . . . trem....
------------|
------------|
------------|
---7'6------|
---5'4-8----|
-0-----6-0--|Continued From Above
. .

-------------------------------------------------------------------------------|
-------------------------------------------------------------------------------|
-------------------------------------------------------------------------------|
---------------6-----8---------------6-----8--------5-5-5---7'6---------5-5-5--|
---------------4-----6---------------4-----6------7---------5'4-8-----7--------|
-4-0-0-0-7-4-0---0-0---4-0-0-0-7-4-0---0-0---0-00---------0-----6-0-0----------|
pm. . . . . . . . . . . . . . . . . . .. trem... . . . trem....

----------------------------------------------------|
----------------------------------------------------|
----------------------------------------------------|
---7'6---------5-5-5---7'6---------5-5-5---7'6------|
---5'4-8-----7---------5'4-8-----7---------5'4-8-2--|
-0-----6-0-0---------0-----6-0-0---------0-----6-0--|
pm . . trem... . . . trem... .
Добавлено: 06.04.2012
Другие материалы по этой песне:

Страница создана 06.04.2012
http://primanota.ru/cannibal-corpse/the-time-to-kill-is-now-chords.htm
Привет, Гость.
Предлагаем пройти революционный курс по гитаре.
Подарок от PrimaNota.Ru, забирай!