PrimaNota.ru - самый крупный в мире бесплатный архив песенных текстов, аккордов, табулатур и нот


Cannibal Corpse - Scalding Hail - текст песни, таба, видео

Регистрация Запомнить меня
Войти через:  Facebook Google Twitter Vk Yandex Mail.ru

Cannibal Corpse - Scalding Hail - текст песни, таба, видео

Печатать
Просмотров: 263
Авторы музыки: Rob Barrett, Alex Webster
Авторы текста: Alex Webster
!!!First off, this was composed by my own interpretations, I listened and took 
note on how i thought it was played.
I have done this my under my own study, not to steal other's work.!!!

Please if you wish to help to better this tab then ask, or if you wish to upload 
it to your own web-site fine.
Just give me a little credit.

I played this on a Seven string, however
im sure you can use a 6 string, just tune
it realy low.

-------------------------------------------------------------------------------
                             Scalding Hail - Cannibal Corpse
-------------------------------------------------------------------------------
Tabbed by: Anthonie A.
Email: aguon2010@hotmail.com

Tuning:"from low to high" A# D# G# C# F A#

A#|------------------------------------------------------------------------|
F |------------------------------------------------------------------------|
C#|------------------------------------------------------------------------|
G#|------------------------------------------------------------------------|
D#|------------------------------------------------------------------------|
A#|-----4--1-1-1-1-4-1-1-1-1-4-1-1-1-1-4-1-1-1-1---------------------------|
           x x x x   x x x x   x x x x   x x x x


A#|------------------------------------------------------------------------|
F |------------------------------------------------------------------------|
C#|------------------------------------------------------------------------|
G#|------------------------------------------------------------------------|
D#|---5--------------------5--------7//8-----------------------------------|
A#|---3--0-0-0-0-0-0-0-0---3-0-0-0--5//6-----------------------------------|
         x x x x x x x x     x x x
A#|------------------------------------------------------------------------|
F |------------------------------------------------------------------------|
C#|------------------------------------------------------------------------|
G#|------------------------------------------------------------------------|
D#|---5--------------------7--------8//7-----------------------------------|
A#|---3--0-0-0-0-0-0-0-0---5-0-0-0--6//5-----------------------------------|
         x x x x x x x x     x x x
A#|------------------------------------------------------------------------|
F |------------------------------------------------------------------------|
C#|------------------------------------------------------------------------|
G#|------------------------------------------------------------------------|
D#|---5----------------5---5---7//8----------------------------------------|
A#|---3-0-0-0-0-0-0-0--3---3---5//6----------------------------------------|
        x x x x x x x


A#|------------------------------------------------------------------------|
F |------------------------------------------------------------------------|
C#|------------------------------------------------------------------------|
G#|------------------------------------------------------------------------|
D#|---5----------------9\\5---9/11/12--------------------------------------|
A#|---3-0-0-0-0-0-0-0--7\\3---7/9/10---------------------------------------|
        x x x x x x x

A#|------------------------------------------------------------------------|
F |------------------------------------------------------------------------|
C#|------------------------------------------------------------------------|
G#|------------------------------------------------------------------------|
D#|------------------------------------------------------------------------|
A#|---11-8-8-8-8-8-8-8-11-8-8-8-11-8-8-8-12-9-9-9--------------------------|

A#|------------------------------------------------------------------------|
F |------------------------------------------------------------------------|
C#|------------------------------------------------------------------------|
G#|------------------------------------------------------------------------|
D#|------------------------------------------------------------------------|
A#|---11-8-8-8-8-8-8-8-11-8-8-8-11-8-8-8-12-9-9-9--------------------------|

                 Then back to the same thing.
A#|------------------------------------------------------------------------|
F |------------------------------------------------------------------------|
C#|------------------------------------------------------------------------|
G#|------------------------------------------------------------------------|
D#|---5--------------------5--------7//8-----------------------------------|
A#|---3--0-0-0-0-0-0-0-0---3-0-0-0--5//6-----------------------------------|
         x x x x x x x x     x x x
A#|------------------------------------------------------------------------|
F |------------------------------------------------------------------------|
C#|------------------------------------------------------------------------|
G#|------------------------------------------------------------------------|
D#|---5--------------------7--------8//7-----------------------------------|
A#|---3--0-0-0-0-0-0-0-0---5-0-0-0--6//5-----------------------------------|
         x x x x x x x x     x x x
A#|------------------------------------------------------------------------|
F |------------------------------------------------------------------------|
C#|------------------------------------------------------------------------|
G#|------------------------------------------------------------------------|
D#|---5----------------5---5---7//8----------------------------------------|
A#|---3-0-0-0-0-0-0-0--3---3---5//6----------------------------------------|
        x x x x x x x


A#|------------------------------------------------------------------------|
F |------------------------------------------------------------------------|
C#|------------------------------------------------------------------------|
G#|------------------------------------------------------------------------|
D#|---5----------------9\\5---9/11/12--------------------------------------|
A#|---3-0-0-0-0-0-0-0--7\\3---7/9/10---------------------------------------|
        x x x x x x x


A#|------------------------------------------------------------------------|
F |------------------------------------------------------------------------|
C#|------------------------------------------------------------------------|
G#|--------------------------------------10-7-7-7--------------------------|
D#|---11-8-8-8-8-8-8-8-11-8-8-8-11-8-8-8-----------------------------------|
A#|------------------------------------------------------------------------|

A#|------------------------------------------------------------------------|
F |------------------------------------------------------------------------|
C#|------------------------------------8-5-5-5-----------------------------|
G#|---9-6-6-6-6-6-6-6-9-6-6-6-9-6-6-6--------------------------------------|
D#|------------------------------------------------------------------------|
A#|------------------------------------------------------------------------|

Now we have some more palm mutes
A#|------------------------------------------------------------------------|
F |------------------------------------------------------------------------|
C#|------------------------------------------------------------------------|
G#|------------------------------------------------------------------------|
D#|------------------------------------------------------------------------|
A#|-----4--1-1-1-1-1-1-1-1-1-4-1-1-1-1-1-1-1-1-1---------------------------|
           x x x x x x x x x   x x x x x x x x x

   This is the tricky bastard part, actualy im not sure what is going on.
Im not sure if it's a pull off or trips. But the posistioning is correct.
A#|------------------------------------------------------------------------|
F |------------------------------------------------------------------------|
C#|------------------------------------------------------------------------|
G#|-----9?8-----9?8-9?8------9?8---10?9------------------------------------|
D#|---------9?8---------9?8------------9?8---------------------------------|
A#|------------------------------------------------------------------------|

A#|------------------------------------------------------------------------|
F |------------------------------------------------------------------------|
C#|------------------------------------------------------------------------|
G#|---9?8-------9?8--------------------------------------------------------|
D#|--------9?8----------------6-6------------------------------------------|
A#|------------------5reach8-------4-4-4-4-4-------------------------------|

A#|------------------------------------------------------------------------|
F |------------------------------------------------------------------------|
C#|------------------------------------------------------------------------|
G#|-----9?8-----9?8-9?8------9?8---10?9------------------------------------|
D#|---------9?8---------9?8------------------------------------------------|
A#|--------------------------------------5reach8---------------------------|

there is a few notes before the 4's. Not sure what they are.
A#|------------------------------------------------------------------------|
F |------------------------------------------------------------------------|
C#|------------------------------------------------------------------------|
G#|------------------------------------------------------------------------|
D#|------------------------------------------------------------------------|
A#|-----4-4-4-4-4-4--7-7-3-3-3-3-3-3---------------------------------------|

A#|------------------------------------------------------------------------|
F |------------------------------------------------------------------------|
C#|------------------------------------------------------------------------|
G#|-----9?8-----9?8-9?8------9?8---10?9------------------------------------|
D#|---------9?8---------9?8------------9?8---------------------------------|
A#|------------------------------------------------------------------------|


A#|------------------------------------------------------------------------|
F |------------------------------------------------------------------------|
C#|------------------------------------------------------------------------|
G#|---9?8-------9?8--------------------------------------------------------|
D#|--------9?8----------------6-6------------------------------------------|
A#|------------------5reach8-------4-4-4-4-4-------------------------------|

A#|------------------------------------------------------------------------|
F |------------------------------------------------------------------------|
C#|------------------------------------------------------------------------|
G#|-----9?8-----9?8-9?8------9?8---10?9------------------------------------|
D#|---------9?8---------9?8------------------------------------------------|
A#|--------------------------------------5reach8---------------------------|


A#|------------------------------------------------------------------------|
F |------------------------------------------------------------------------|
C#|------------------------------------------------------------------------|
G#|------------------------------------------------------------------------|
D#|------------------------------------------------------------------------|
A#|-----4-4-4-4-4-4--7-7-3-3-3-3-3-3---------------------------------------|

    Play while he srceams But reapet this 3 times. HAAAAAAAIL!
A#|--------------------------------------------------\\\\\\\\--------------|
F |---------------------------------------------------\\\\\\\--------------|
C#|----------------------------------------------------\\\\\\--------------|
G#|-----------------------------------------------------\\\\---------------|
D#|------------------------------------------------------\\\---------------|
A#|-----4-1-1-1-1-1-1-4-1-1-1-4-1-1-1-4-1-1-1-5-2-2-2-----\\---------------|


 During the pause Rythm guitar plays.
A#|------------------------------------------------------------------------|
F |------------------------------------------------------------------------|
C#|------------------------------------------------------------------------|
G#|------------------------------------------------------------------------|
D#|----------------------------------------------7--pause------------------|
A#|-----4-1-1-1-1-1-1-4-1-1-1-4-1-1-1-4-1-1-1----5--a-sec------------------|

A#|------------------------------------------------------------------------|
F |------------------------------------------------------------------------|
C#|------------------------------------------------------------------------|
G#|------------------------------------------------------------------------|
D#|---10--------------------9\8--------------------------------------------|
A#|---8---5-5-5-5-5-5-------7\6---5-5-5-5----------------------------------|

A#|------------------------------------------------------------------------|
F |------------------------------------------------------------------------|
C#|---------------8-8-8-8--------------9-9-9-9-----------------------------|
G#|---------------6-6-6-6--------------7-7-7-7-----------------------------|
D#|----------6-6-----------------6-6---------------------------------------|
A#|----5-8------------------5-8--------------------------------------------|

A#|------------------------------------------------------------------------|
F |------------------------------------------------------------------------|
C#|------------------------------------------------------------------------|
G#|------------------------------------------------------------------------|
D#|---10----------------9\8------------------------------------------------|
A#|---8--5-5-5-5-5-5----7\6--5-5-5-5---------------------------------------|

A#|------------------------------------------------------------------------|
F |------------------------------------------------------------------------|
C#|-----8-8-8-8-9-9-9-9-12-12-12-12-12-12-12-12----------------------------|
G#|-----6-6-6-6-7-7-7-7-10-10-10-10-10-10-10-10----------------------------|
D#|------------------------------------------------------------------------|
A#|------------------------------------------------------------------------|

A#|------------------------------------------------------------------------|
F |------------------------------------------------------------------------|
C#|------------------------------------------------------------------------|
G#|------------------------------------------------------------------------|
D#|---10----------------9\8------------------------------------------------|
A#|---8--5-5-5-5-5-5----7\6--5-5-5-5---------------------------------------|

A#|------------------------------------------------------------------------|
F |------------------------------------------------------------------------|
C#|---------------8-8-8-8--------------9-9-9-9-----------------------------|
G#|---------------6-6-6-6--------------7-7-7-7-----------------------------|
D#|----------6-6-----------------6-6---------------------------------------|
A#|----5-8------------------5-8--------------------------------------------|

A#|------------------------------------------------------------------------|
F |------------------------------------------------------------------------|
C#|------------------------------------------------------------------------|
G#|------------------------------------------------------------------------|
D#|---10----------------9\8------------------------------------------------|
A#|---8--5-5-5-5-5-5----7\6--5-5-5-5---------------------------------------|

A#|------------------------------------------------------------------------|
F |------------------------------------------------------------------------|
C#|---12-12-11-11-8-8-7-7-10-10-10-10-10-10-10-10--------------------------|
G#|---10-10-9--9--6-6-5-5--8-8--8--8--8--8--8--8---------------------------|
D#|------------------------------------------------------------------------|
A#|------------------------------------------------------------------------|

A#|------------------------------------------------------------------------|
F |------------------------------------------------------------------------|
C#|------------------------------------------------------------------------|
G#|------------------------------------------------------------------------|
D#|---5--------------------5--------7//8-----------------------------------|
A#|---3--0-0-0-0-0-0-0-0---3-0-0-0--5//6-----------------------------------|
         x x x x x x x x     x x x

A#|------------------------------------------------------------------------|
F |------------------------------------------------------------------------|
C#|------------------------------------------------------------------------|
G#|------------------------------------------------------------------------|
D#|---5--------------------7--------8//7-----------------------------------|
A#|---3--0-0-0-0-0-0-0-0---5-0-0-0--6//5-----------------------------------|
         x x x x x x x x     x x x


A#|------------------------------------------------------------------------|
F |------------------------------------------------------------------------|
C#|------------------------------------------------------------------------|
G#|------------------------------------------------------------------------|
D#|---5----------------5---5---7//8----------------------------------------|
A#|---3-0-0-0-0-0-0-0--3---3---5//6----------------------------------------|
        x x x x x x x


A#|------------------------------------------------------------------------|
F |------------------------------------------------------------------------|
C#|------------------------------------------------------------------------|
G#|------------------------------------------------------------------------|
D#|---5----------------9\\8---9/11/12--------------------------------------|
A#|---3-0-0-0-0-0-0-0--7\\6---7/9/10---------------------------------------|
        x x x x x x x

A#|------------------------------------------------------------------------|
F |------------------------------------------------------------------------|
C#|------------------------------------------------------------------------|
G#|--------------------------------------10-7-7-7--------------------------|
D#|---11-8-8-8-8-8-8-8-11-8-8-8-11-8-8-8-----------------------------------|
A#|------------------------------------------------------------------------|

A#|------------------------------------------------------------------------|
F |------------------------------------------------------------------------|
C#|------------------------------------8-5-5-5-----------------------------|
G#|---9-6-6-6-6-6-6-6-9-6-6-6-9-6-6-6--------------------------------------|
D#|------------------------------------------------------------------------|
A#|------------------------------------------------------------------------|

A#|------------------------------------------------------------------------|
F |------------------------------------------------------------------------|
C#|---7-4-4-4-4-4-4-4-7-4-4-4-7-4-4-4-11-8-8-8-----------------------------|
G#|------------------------------------------------------------------------|
D#|------------------------------------------------------------------------|
A#|------------------------------------------------------------------------|

A#|------------------------------------------------------------------------|
F |------------------------------------------------------------------------|
C#|---10-7-7-7-7-7-7-7-10-7-7-7-10-7-7-7-14-11-11-11-----------------------|
G#|------------------------------------------------------------------------|
D#|------------------------------------------------------------------------|
A#|------------------------------------------------------------------------|

   Not sure how to display timeing.
A#|------------------------------------------------------------------------|
F |------------------------------------------------------------------------|
C#|------------------------------------------------------------------------|
G#|------------------------------------------------------------------------|
D#|---9----9----9----9-----------------------------------------------------|
A#|---7----7----7----7-----------------------------------------------------|

A#|------------------------------------------------------------------------|
F |------------------------------------------------------------------------|
C#|------------------------------------------------------------------------|
G#|------------------------------------------------------------------------|
D#|---9----9----9----9----9----9----9----9---------------------------------|
A#|---7----7----7----7----7----7----7----7---------------------------------|

Now for the long tricky bastard part!
A#|------------------------------------------------------------------------|
F |------------------------------------------------------------------------|
C#|------------------------------------------------------------------------|
G#|-----9?8-----9?8-9?8------9?8---10?9------------------------------------|
D#|---------9?8---------9?8------------9?8---------------------------------|
A#|------------------------------------------------------------------------|

A#|------------------------------------------------------------------------|
F |------------------------------------------------------------------------|
C#|------------------------------------------------------------------------|
G#|-----9?8-----9?8-9?8------9?8---10?9------------------------------------|
D#|---------9?8---------9?8------------9?8---------------------------------|
A#|------------------------------------------------------------------------|

A#|------------------------------------------------------------------------|
F |------------------------------------------------------------------------|
C#|------------------------------------------------------------------------|
G#|-----9?8-----9?8-9?8------9?8---10?9------------------------------------|
D#|---------9?8---------9?8------------9?8---------------------------------|
A#|------------------------------------------------------------------------|

A#|------------------------------------------------------------------------|
F |------------------------------------------------------------------------|
C#|------------------------------------------------------------------------|
G#|-----9?8-----9?8-9?8------9?8---10?9------------------------------------|
D#|---------9?8---------9?8------------9?8---------------------------------|
A#|------------------------------------------------------------------------|

A#|------------------------------------------------------------------------|
F |------------------------------------------------------------------------|
C#|---7?6-----7?6--7?6------7?6-8?7----------------------------------------|
G#|------7?6-----------7?6---------7?6-------------------------------------|
D#|------------------------------------------------------------------------|
A#|------------------------------------------------------------------------|

A#|------------------------------------------------------------------------|
F |------------------------------------------------------------------------|
C#|---7?6-----7?6--7?6------7?6-8?7----------------------------------------|
G#|------7?6-----------7?6---------7?6-------------------------------------|
D#|------------------------------------------------------------------------|
A#|------------------------------------------------------------------------|

A#|------------------------------------------------------------------------|
F |------------------------------------------------------------------------|
C#|---7?6-----7?6--7?6------7?6-8?7----------------------------------------|
G#|------7?6-----------7?6---------7?6-------------------------------------|
D#|------------------------------------------------------------------------|
A#|------------------------------------------------------------------------|


A#|------------------------------------------------------------------------|
F |------------------------------------------------------------------------|
C#|---7?6-----7?6--7?6------7?6-8?7----------------------------------------|
G#|------7?6-----------7?6-------------------------------------------------|
D#|------------------------------------------------------------------------|
A#|---------------------------------5reach8--------------------------------|

Now for the end.
A#|------------------------------------------------------------------------|
F |------------------------------------------------------------------------|
C#|------------------------------------------------------------------------|
G#|------------------------------------------------------------------------|
D#|----------------------------------------3-------------------------------|
A#|-----4-4-4-4-4-4--7-7-3-3-3-3-3-3-------1-------------------------------|

Well there it is! If you have any corrections let me know. I had alot of fun tabing this,
but not spending all that money on jagermeister while tabing. Keep it brutal.

*****L**E**G**E**N**D*****

| /   slide up
| \   slide down
| h   hammer-on
| p   pull-off
| ~   vibrato
| +   harmonic
| x   Mute note
| b   Bend
| pb  Pre-bend
| br  Bend release
| pbr Pre-bend release
| brb Bend release bend

*************************
Добавлено: 23.02.2012
Другие материалы по этой песне:

Страница создана 23.02.2012
http://primanota.ru/cannibal-corpse/scalding-hail-chords.htm
Привет, Гость.
Предлагаем пройти революционный курс по гитаре.
Подарок от PrimaNota.Ru, забирай!