PrimaNota.ru - самый крупный в мире бесплатный архив песенных текстов, аккордов, табулатур и нот


Cannibal Corpse - I Will Kill You - аккорды и текст, таба, видео

Регистрация Запомнить меня
Войти через:  Facebook Google Twitter Vk Yandex Mail.ru

Cannibal Corpse - I Will Kill You - аккорды и текст, таба, видео

Печатать
Просмотров: 306
I Will Kill You
Cannibal Corpse
Tabbed by:THE SANDMAN
Email:ryan5@iamwasted.com
 

------------------------------------------------------------
------------------------------------------------------------
------------------------------------------------------------
-----------------------------333333-------------------------
-------------3333-------------------2-000-2-000-2--------
-111111444444----444400001111----------000----000-----------
                     ###    ###

------------------------------------------------------------
------------------------------------------------------------
------------------------------------------------------------
-----------------------------333333/6-----6-9-8--6----6-9---
-------------3333----------------------00----------00-----8-
-111111444444----444400001111----------00----------00-------
                     ##          ##

------------------------------------------------------------
------------------------------------------------------------
-------------3333------------3333/XXXX----------------------
-11111155555544445555111155554444/9999----------------------
-111111555555----555511115555---------8~--00----------------
------------------------------------------00----------------
                        


-------------------------------------------------------------
-------------------------------------------------------------
-2-5-4--2-5-----2-5-4--2-5-----2-5-4--2-5--------------------
------------4--------------4--------------4------------------
-------------------------------------------------------------
-------------------------------------------------------------

-----------------------------
-----------------------------
-----------------------------
-----------------------------
-9---8-5-4-------------------
-7---6-3-2-------------------

enjoy
Добавлено: 17.09.2013
Другие материалы по этой песне:

Страница создана 21.02.2012
http://primanota.ru/cannibal-corpse/i-will-kill-you-chords.htm
Привет, Гость.
Предлагаем пройти революционный курс по гитаре.
Подарок от PrimaNota.Ru, забирай!