PrimaNota.ru - самый крупный в мире бесплатный архив песенных текстов, аккордов, табулатур и нот


Cannibal Corpse - Decency Defined - таба, видео

Регистрация Запомнить меня
Войти через:  Facebook Google Twitter Vk Yandex Mail.ru

Cannibal Corpse - Decency Defined - таба, видео

Печатать
Просмотров: 27
-------------------------------------------------------------------------------
                           Cannibal Corpse - Decency Defined
-------------------------------------------------------------------------------
Tabbed by: Diesel
E-mail: daughtryfan497@gmail.com

Tuning: A# Standard ( A# - D# - G# - C# - F - A#)

                                 Solo comes in 01:57

A#|-24~~~~~~--14-15-14-12-14-12-14-12-14-15-14-12-14-12-14--------------------|
F|---------------------------------------------------------------------------|
C#|---------------------------------------------------------------------------|
G#|---------------------------------------------------------------------------|
D#|---------------------------------------------------------------------------|
A#|---------------------------------------------------------------------------|

A#|-11-12-11-12-11-12-11-12-11-12-11-12-11-12-11-12---------------------------|
F |---------------------------------------------------------------------------|
C#|---------------------------------------------------------------------------|
G#|---------------------------------------------------------------------------|
D#|---------------------------------------------------------------------------|
A#|---------------------------------------------------------------------------|

A#|---------------------------------------------------------------------------|
F |-12-13-12-13-12-13-16/17-12-13-16/17-12-13--------------------------------|
C#|---------------------------------------------------------------------------|
G#|---------------------------------------------------------------------------|
D#|---------------------------------------------------------------------------|
A#|---------------------------------------------------------------------------|

Ax|---------------------------------------------------------------------------|
F |-12-10-12-10-12-10-13-12-10-12-10-12-10------------------------------------|
C#|---------------------------------------------------------------------------|
G#|---------------------------------------------------------------------------|
D#|---------------------------------------------------------------------------|
A#|---------------------------------------------------------------------------|

A#|---------------------------------------------------------------------------|
F|-12-13-12-10-12-10-9-10-9--------------------------------------------------|
C#|--------------------------10-13-10-9~~~~DB---------------------------------|
G#|---------------------------------------------------------------------------|
D#|---------------------------------------------------------------------------|
A#|---------------------------------------------------------------------------|


   DB - Dive Bomb from Floyd Rose Bar

************************************

| /   slide up
| \   slide down
| h   hammer-on
| p   pull-off
| ~   vibrato
| +   harmonic
| x   Mute note
| b   Bend
| pb  Pre-bend
| br  Bend release
| pbr Pre-bend release
| brb Bend release bend

************************************
Добавлено: 14.02.2016
Другие материалы по этой песне:
  • Аккорды и текст

Страница создана 14.02.2016
http://primanota.ru/cannibal-corpse/decency-defined-chords.htm
Привет, Гость.
Предлагаем пройти революционный курс по гитаре.
Подарок от PrimaNota.Ru, забирай!