PrimaNota.ru - самый крупный в мире бесплатный архив песенных текстов, аккордов, табулатур и нот


Calogero - Le secret - текст песни, бас-таба, видео

Регистрация Запомнить меня
Войти через:  Facebook Google Twitter Vk Yandex Mail.ru

Calogero - Le secret - текст песни, бас-таба, видео

Печатать
Просмотров: 215


Le Secret by Calogero  (from the album Live 1.0)
----------------------------------------------------

transcribed by Gilles Velay (gvelay@free.fr)

Notations :
  e : 8th             h : half            q : quarter
  s : 16th            w : whole
  / : slide up        R : rest             : slide down
  h : hammer on       p : pull off


Tempo 92

Verse 1
-------
 no bass until sans espoir
    w                e      e     e     e     e      e     e      e
G-|----------------|----------------------------------------------------|
D-|-R--------------|-R--------------------------------------------------|
A-|----------------|-------15----15----15----15----/12----/7-----/4-----|
E-|----------------|----------------------------------------------------|


Verse 2
-------
 Play Twice
    h              s e   q+s          h              s  e    q+s
G-|--------------------------------|--------------------------------------|
D-|--------------------------------|--------------------------------------|
A-|-0--------------0-0---0---------|-/7--------------7--7----7------------|
E-|--------------------------------|--------------------------------------|

    h              s e   q+s         h              s e   q+s
G-|--------------------------------|--------------------------------|
D-|--------------------------------|--------------------------------|
A-|--------------------------------|-4--------------4-4---4---------|
E-|-2--------------2-2---2---------|--------------------------------|

Pre Chorus
----------
    q         e    h+e             h              s e   q+s
G-|------------------------------|--------------------------------|
D-|------------------------------|--------------------------------|
A-|-5-------/20--p17-------------|-5--------------5-5---5---------|
E-|------------------------------|--------------------------------|

    h              s e   q+s         h              s e   q+s
G-|--------------------------------|--------------------------------|
D-|--------------------------------|--------------------------------|
A-|-0--------------0-0---0---------|-0--------------0-0---0---------|
E-|--------------------------------|--------------------------------|

    h              s e   q+s         h              s e   q+s
G-|--------------------------------|--------------------------------|
D-|--------------------------------|--------------------------------|
A-|-5--------------5-5---5---------|-5--------------5-5---5---------|
E-|--------------------------------|--------------------------------|




    e e e e e e e e   e e e e e e q
G-|-----------------|-----------------|
D-|-----------------|-------------R---|
A-|-0-0-0-0-0-0-0-0-|-0-0-0-0-0-0-----|
E-|-----------------|-----------------|


Chorus
------
 Play twice
    e e e e e e e e   e e e e e e e e   e e e e e e e e   e e e e e e e e
G-|-----------------|-----------------|-----------------|-----------------|
D-|-----------------|-----------------|-----------------|-----------------|
A-|-0-0-0-0-0-0-0-0-|-----------------|-----------------|-5-5-5-5-7-7-7-7-|
E-|-----------------|-0-0-0-0-0-0-0-0-|-2-2-2-2-2-2-2-2-|-----------------|

    e e e e e e e e   e e e e e e e e   e e e e e e e e   e e e e e e e e
G-|-----------------|-----------------|-----------------|-----------------|
D-|-----------------|-----------------|-----------------|-----------------|
A-|-0-0-0-0-0-0-0-0-|-----------------|-5-5-5-5-5-5-5-5-|-7-7-7-7-7-7-7-7-|
E-|-----------------|-0-0-0-0-0-0-0-0-|-----------------|-----------------|

 Then
      q+e            s    s    q+e            s    s
G-|----------------------------------------------------|
D-|-----------------12--/14--12-------------11--/12--|
A-|-/12------------------------------------------------|
E-|----------------------------------------------------|

     q+e            s    s    q             q
G-|---------------------------------------------------------|
D-|-11------------------------------------------------------|
A-|----------------12--/14--12-------------7--------------|
E-|---------------------------------------------------------|

Verse 3
-------
 Idem Verse 2
Pre Chorus
----------
    h                e     q+e            h              s e   q+s
G-|-------------------------------------|--------------------------------|
D-|-------------------------------------|--------------------------------|
A-|-5--------------/20---p17------------|-5--------------5-5---5---------|
E-|-------------------------------------|--------------------------------|

    h              s e   q+s
G-|--------------------------------|
D-|--------------------------------|
A-|-0--------------0-0---0---------|
E-|--------------------------------|

    s    s   s    s    q              s   e        q+s
G-|----------7---h9---p7------------------------------------------|
D-|-7---h9--------------------------------------------------------|
A-|-----------------------------------0---0--------0--------------|
E-|---------------------------------------------------------------|





    h              s e   q+s         h              s e   q+s
G-|--------------------------------|--------------------------------|
D-|--------------------------------|--------------------------------|
A-|-5--------------5-5---5---------|-5--------------5-5---5---------|
E-|--------------------------------|--------------------------------|

    e e e e e e e e   e e e e e e q
G-|-----------------|-----------------|
D-|-----------------|-------------R---|
A-|-0-0-0-0-0-0-0-0-|-0-0-0-0-0-0-----|
E-|-----------------|-----------------|

Chorus
------
Same as first chorus (except that bass stops on le survivant with :)
     w
G-|----------------|
D-|----------------|
A-|-12-------------|
E-|----------------|

Outtro
------
No bass until il le pressant
    e e e e e e e e   e e e e e e q     e e e e e e e e   e e e e e e e e
G-|-----------------|-----------------|-----------------|-----------------|
D-|-----------------|-------------R---|-----------------|-----------------|
A-|-0-0-0-0-0-0-0-0-|-0-0-0-0-0-0-----|-0-0-0-0-0-0-0-0-|-----------------|
E-|-----------------|-----------------|-----------------|-0-0-0-0-0-0-0-0-|

    s s q       s q+s       s s   e   e   e   s s e   e   e   e
G-|-----------------------------|---------------------------------|
D-|-4-6-7-------4-2---------2---|---------------------------------|
A-|---------------------------5-|-4---2---5---4-2-----------------|
E-|-----------------------------|-----------------5---4---2---0---|

    e e e e e e e e   e e e e e e e e   e e e e e e e e   e e e e e e e e
G-|-----------------|-----------------|-----------------|-----------------|
D-|-----------------|-----------------|-----------------|-----------------|
A-|-0-0-0-0-0-0-0-0-|-----------------|-5-5-5-5-5-5-5-5-|-7-7-7-7-7-7-7-7-|
E-|-----------------|-0-0-0-0-0-0-0-0-|-----------------|-----------------|

    w                e e e e e e e e   e e e e e e e e   e e e e e e e e
G-|----------------|-----------------|-----------------|-----------------|
D-|-R--------------|-----------------|-----------------|-----------------|
A-|----------------|-----------------|-----------------|-5-5-5-5-7-7-7-7-|
E-|----------------|-0-0-0-0-0-0-0-0-|-2-2-2-2-2-2-2-2-|-----------------|

    e e e e e e e e   e e e e e e e e   e e e e e e e e   e e e e e e e e
G-|-----------------|-----------------|-----------------|-----------------|
D-|-----------------|-----------------|-----------------|-----------------|
A-|-0-0-0-0-0-0-0-0-|-----------------|-5-5-5-5-5-5-5-5-|-7-7-7-7-7-7-7-7-|
E-|-----------------|-0-0-0-0-0-0-0-0-|-----------------|-----------------|

    w                e e e e e e e e   e e e e e e e e   e e e e e e e e
G-|----------------|-----------------|-----------------|-----------------|
D-|-R--------------|-----------------|-----------------|-----------------|
A-|----------------|-----------------|-----------------|-5-5-5-5-7-7-7-7-|
E-|----------------|-0-0-0-0-0-0-0-0-|-2-2-2-2-2-2-2-2-|-----------------|



    e e e e e e e e   e e e e e e e e   e e e e e e e e   e e e e e e e e
G-|-----------------|-----------------|-----------------|-----------------|
D-|-----------------|-----------------|-----------------|-----------------|
A-|-0-0-0-0-0-0-0-0-|-----------------|-5-5-5-5-5-5-5-5-|-7-7-7-7-7-7-7-7-|
E-|-----------------|-0-0-0-0-0-0-0-0-|-----------------|-----------------|

     h+q           q       w
G-|----------------------|----------------|
D-|----------------------|----------------|
A-|-12------------7----|-0--------------|
E-|----------------------|----------------|


----------------------------------------------------------------------
| Tab generated with GnTabber (http://gvelay.free.fr/tools/gntabber) |
| on Tue Apr  8 23:46:08 2008                                        |
----------------------------------------------------------------------


Добавлено: 23.01.2014
Другие материалы по этой песне:
  • Аккорды и текст

Страница создана 23.01.2014
http://primanota.ru/calogero/le-secret-chords.htm
Привет, Гость.
Предлагаем пройти революционный курс по гитаре.
Подарок от PrimaNota.Ru, забирай!