PrimaNota.ru - самый крупный в мире бесплатный архив песенных текстов, аккордов, табулатур и нот


Calogero - Aussi Libre Que Moi - текст песни, бас-таба, видео

Регистрация Запомнить меня
Войти через:  Facebook Google Twitter Vk Yandex Mail.ru

Calogero - Aussi Libre Que Moi - текст песни, бас-таба, видео

Печатать
Просмотров: 316
Band: Calogero
Song: Aussi libre que moi
Tuning: Standard(E-A-D-G)
Difficulty: Easy
Tabbed By: Natsuka

E-mail : Bassiste-95@hotmail.com

Verse 1 :

G|-----7--------7------9--------9-------------------------------------------|
D|---------------------------------------7--------7--------7--------7-------|
A|-5-5----3/5-5----7-7----5/7-7---------------------------------------------|
E|---------------------------------3/5-5----3/5-5----3/5-5----3/5-5----12\--|

Chorus 1 :

G|------------------------------------------------------------------|
D|------------------------------------------------------------------|
A|-8-8-8-8-8-8-8-8-8-8-8-8-8-8-8-8-7-7-7-7-7-7-7-7-7-7-7-7-7-7-7-7--|
E|------------------------------------------------------------------|

G|------------------------------------------------------------------|
D|------------------------------------------------------------------|
A|------------------------------------------------------------------|
E|-5-5-5-5-5-5-5-5-5-5-5-5-5-5-5-5-3-3-3-3-3-3-3-3-3-3-3-3-3-3-3-3--|

G|------------------------------------------------------------------|
D|------------------------------------------------------------------|
A|-8-8-8-8-8-8-8-8-8-8-8-8-8-8-8-8-7-7-7-7-7-7-7-7-7-7-7-7-7-7-7-7--|
E|------------------------------------------------------------------|

G|----------------------------------------------------------------------|
D|----------------------------------------------------------------------|
A|----------------------------------------------------------------------|
E|-5-5-5-5-5-5-5-5-5-5-5-5-5-5-5-5-3-3-3-3-3-3-3-3-3-3-3-3/15-15-15-15--|

Verse 2 :

G|-----7--------7------9--------9-------------------------------------------|
D|---------------------------------------7--------7--------7--------7--7----|
A|-5-5----3/5-5----7-7----5/7-7-------------------------------------------5-|
E|---------------------------------3/5-5----3/5-5----3/5-5----3/5-5---------|

G|-----7--------7--------9--------9---------------------------------------------|
D|------------------------------------------7--------7--------7--------7--7-----|
A|-5-5----3/5-5----5/7-7----5/7-7-----------------------------------------------|
E|------------------------------------3/5-5----3/5-5----3/5-5----3/5-5-------5--|

Chorus 2 : ( you can slide for the octave on the same string ( -3-3/15-15- for example )

G|----------------------------------------------------------------------|
D|----------------------------------------------------------------------|
A|----------------------------------------------------------------------|
E|-12\0-0-0-0-0-0-0-0-0-0-0-0-0-0-0-0-5-5-5-5-5-5-5-5-5-5-5-5-5-5-5-5---|

G|------------------------------------------------------------------|
D|------------------------------------------------------------------|
A|---------------------------------8-8-8-8-8-8-8-8-8-8-8-8-8-8-8-8--|
E|-3-3-3-3-3-3-3-3-3-3-3-3-3-3-3-3----------------------------------|

G|------------------------------------------------------------------|
D|------------------------------------------------------------------|
A|-7-7-7-7-7-7-7-7-7-7-7-7-7-7-7-7----------------------------------|
E|---------------------------------5-5-5-5-5-5-5-5-5-5-5-5-5-5-5-5--|

G|---------------------------------------------------------------------|
D|---------------------------------------------------------------------|
A|---------------------------------------------------------------------|
E|-3-3-3-3-3-3-3-3-3-3-3-3-3-3-3-3-0-0-0-0-0-0-0-0-0-0-0-0-0-0-0-------|

G|------------------------------------------------------------------------------|
D|------------------------------------------------------------------------------|
A|-----------------------------------------2-2-2-2-2-2-2-2-2-2-2-2-2-2-2-2------|
E|-2-2-2-2-2-2-2-2/14-14-14-14-14-14-14-14--------------------------------------|

G|--------------------------------------------------------------------|
D|--------------------------------------------------------------------|
A|-2-2-2-2-2-2-2-2--2-2-0-0-------------------------------------------|
E|--------------------------3-3-2-2-0-0--0-0-0-0-0-0-0-0-0-0-0-0-0-0--|

G|---------------------------------------------------|
D|---------------------------------------------------|
A|---------------------------------2-2-2-2-2-2-2-2~--|
E|-2-2-2-2-2-2-2-2-2-2-2-2-2-2-2-2-------------------|

Chorus 3 / end : ( That's the same, you can slide if you want =) )

G|---------------------------------------------------------------------|
D|---------------------------------------------------------------------|
A|---------------------------------------------------------------------|
E|-15\3-3-3-3-3-3-3-3-3-3-3-3-3-3-3-3-2-2-2-2-2-2-2-2-2-2-2-2-2-2-2-2--|

G|--------------------------------------------------------------------------|
D|--------------------------------------------------------------------------|
A|-2-2-2-2-2-2-2-2-2-2-2-2-2-2-2-2------------------------------------------|
E|---------------------------------5-5-5-5-5-5-5-5/15-15-15-15-15-15-15-15--|

G|------------------------------------------------------------------|
D|------------------------------------------------------------------|
A|------------------------------------------------------------------|
E|-3-3-3-3-3-3-3-3-3-3-3-3-3-3-3-3-2-2-2-2-2-2-2-2-2-2-2-2-2-2-2-2--|

G|------------------------------------------------------------------|
D|------------------------------------------------------------------|
A|-2-2-2-2-2-2-2-2-2-2-2-2-2-2-2-2-0-0-0-0-0-0-0-0-0-0-0-0-0-0-0-0--|
E|------------------------------------------------------------------|

G|------------------------------------------------------------------|
D|------------------------------------------------------------------|
A|------------------------------------------------------------------|
E|-0-0-0-0-0-0-0-0-0-0-0-0-0-0-0-0-2-2-2-2-2-2-2-2-2-2-2-2-2-2-2-2--|

G|------------------------------------------------------------------|
D|------------------------------------------------------------------|
A|-2-2-2-2-2-2-2-2-2-2-2-2-2-2-2-2-0-0-0-0-0-0-0-0-0-0-0-0-0-0-0-0--|
E|------------------------------------------------------------------|


| /  slide up
| \  slide down
| h  hammer-on
| p  pull-off
| ~  vibrato
| +  harmonic
| x  Mute note

Enjoy
Добавлено: 27.02.2012
Другие материалы по этой песне:
  • Аккорды и текст

Страница создана 27.02.2012
http://primanota.ru/calogero/aussi-libre-que-moi-chords.htm
Привет, Гость.
Предлагаем пройти революционный курс по гитаре.
Подарок от PrimaNota.Ru, забирай!