PrimaNota.ru - самый крупный в мире бесплатный архив песенных текстов, аккордов, табулатур и нот


Caliban - Beloved And The Hatred - текст песни, таба, видео

Регистрация Запомнить меня
Войти через:  Facebook Google Twitter Vk Yandex Mail.ru

Caliban - Beloved And The Hatred - текст песни, таба, видео

Печатать
Просмотров: 208
CALIBAN - THE BELOVED AND THE HATRED
DROP C TUNNING (CGCEDA)
TABBED BY: Mr Skylinks


INTRO
-------------------------------------|
-------------------------------------|
-------------------------------------|
-------------------------------------|  x4
-------------------------------------|
--1---0(repeat)---1---0(repeat)---1--|

GUITAR 1
-----------------------------------------------|----------------------|
-----------------------------------------------|----------------------|
----------------3----------------3---------5---|----------------------|
--0-------------3-[ring]---------3---------5---|---0---------0--------| x2
--0-[ring]------1----------0-0---1---0-0---3---|---0-[ring]--0-[ring]-|
--0------------------------0-0-------0-0-------|---0---------0--------|
                           . .       . .
GUITAR2
------------------|---------------|
------------------|---------------|
------------------|--7--5(ring)---|
7---5----5---7----|---------------| x2
---------3---5----|---------------|
------------------|---------0-----|


POST-VERSE
---------------------------|
---------------------------|
---------------------------|
---------------------------|
---------------------------|
--1p0-2p0--2p1--4p1--------|


VERSE (wah heartache ar! chim man..got 2 u see which better)
-----------------------------------        ---------------------------|
-----------------------------------        ---------------------------|
-----------------------------------        ---------------------------|
--1-0-0-1-0-0-1p0-2p0-1h4p1-0------ x8     ---------------------------| x8
--1-0-0-1-0-0-1p0-2p0-1h4p1-0------        ---------------------------|
--1-0-0-1-0-0-1p0-2p0-1h4p1-0------        -1-0-0-1-0-0-1-2-2p1-4p1---|
    . .   . .

AFTER-VERSE
--0-----------------------|
--0-[repeat]--------------| x4
--0-----------------------|
  .

CHORUS (4 bars of chorus all played differently)
----------|--------|----------|------------|
----------|--------|----------|------------|
--0-2-4-2-|--0-4-2-|--0-2-4-7-|--0-4-2-----| GUITAR 1
--0-2-4-2-|--0-4-2-|--0-2-4-7-|--0-4-2-----|
--0-2-4-2-|--0-4-2-|--0-2-4-7-|--0-4-2-----|

-------------------------------------------|
-------------------------------------------| GUITAR 2 starts earlier (light overdrive)
----14----13---13--------------------------|
-------0-----0----0------------------------| repeat as needed
-------------------------------------------|
-------------------------------------------|

BRIDGE
-----------------------------------------------------------------------|
-----------------------------------------------------------------------|
-----------------------------------------------------------------------|
-----------------------------------------------------------------------| x4 (0s repeat 
needed)
-5----5-6-----5-6--3-5----5----5-6------5-6--3-5----5s3--3s1--1p0------|
----0------0-----------------0-------0------------0--------------------|
    .      .                 .       .            .

POST-VERSE x1

VERSE x4

CHORUS x8 (same as above)

BRIDGE x4

VERSE x2


-----------------------------------|
-----------------------------------|
-----------------------------------|    i think this part one guitar play
--0-1-1p0-0-0-1p0-0-0-1p0----------|    and the other guitar comes in with triplets 
with the drums
--0-1-1p0-0-0-1p0-0-0-1p0----------|
--0-1-1p0-0-0-1p0-0-0-1p0----------|
          . .     . .


AFTER-VERSE x4

OUTRO
--------------------|---------------------|
--------------------|---------------------|
-----------------1--|----------------3----|
--0--------------1--|--0-------------1----| x2
--0-[repeat]--------|--0-[repeat]---------|
--0-----------------|--0------------------|
Добавлено: 04.03.2012
Другие материалы по этой песне:

Страница создана 27.02.2012
http://primanota.ru/caliban/beloved-and-the-hatred-chords.htm
Привет, Гость.
Предлагаем пройти революционный курс по гитаре.
Подарок от PrimaNota.Ru, забирай!