PrimaNota.ru - самый крупный в мире бесплатный архив песенных текстов, аккордов, табулатур и нот


Cake - Mustache Man Wasted - текст песни, таба, видео

Регистрация Запомнить меня
Войти через:  Facebook Google Twitter Vk Yandex Mail.ru

Cake - Mustache Man Wasted - текст песни, таба, видео

Печатать
Просмотров: 249
Авторы: John McCrea, Xan McCurdy, Gabriel Nelson

-------------------------------------------------------------------------------
                             Mustache Man (Wasted) - Cake
-------------------------------------------------------------------------------
Tabbed by: Scott Elwood
Email:  Elwood32@live.com

Tuning: Standard (EADGBe)

  Guitar:
e|------------------------------------------|
B|------------------------------------------|
G|------------------------------------------|
D|------2--1--0-----------------------------|    x6
A|-----------------2--1--0------------------|
E|-0--------------------------3----2----3---|

e|-----|
B|-----|
G|-----|
D|-----|
A|-----|
E|-0---|


(00:30)

  Bass:
e|-----------------------------------------|
B|-----------------------------------------|
G|-----------------------------------------|
D|--------0--0-2-------------0--0-2--0-2---| until (00:59)
A|-----------------------------------------|
E|-0-------------------0-------------------|


(00:46)

  Guitar:
e|---------------------------------------------|
B|---------------------------------------------|
G|-7----7----7--9\-7------7----7----7--6/-7-7--|
D|---------------------------------------------|
A|-5----5----5--7\-5------5----5----5--4/-5-5--|
E|---------------------------------------------|

e|---------------------------------------------|
B|---------------------------------------------|
G|-7----7----7--9\-7------7----7----7--6--6-6--|
D|---------------------------------------------|
A|-5----5----5--7\-5------5----5----5--4--4-4--|
E|---------------------------------------------|


(01:01)

(I'm pretty sure Xan just plays the root note from
the live video I saw, but I think it sounds fuller
when you play it as a power chord)
e|-----------------------------------------------|
B|-----------------------------------------------|
G|-----------------------------------------------|
D|-5--5------------------------------------------|
A|-3--3----5--5--5-5-5-5--4--4---4-5--5--5-5-5-5-|
E|---------3--3--3-0-3-0--2--2---2-3--3--3-0-3-0-|

e|-------------------------------|
B|-------------------------------|
G|-------------------------------|
D|-5--5--------------------------|
A|-3--3----5--5--5-5-5-5--4--4---|
E|---------3--3--3-0-3-0--2--2---|

e|------------------------------------------|
B|------------------------------------------|
G|------------------------------------------|
D|------2--1--0-----------------------------|    x4
A|-----------------2--1--0------------------|
E|-0--------------------------3----2----3---|

e|-----|
B|-----|
G|-----|
D|-----|
A|-----|
E|-0---|


(01:32)

  Bass:
e|-----------------------------------------|
B|-----------------------------------------|
G|-----------------------------------------|
D|--------0--0-2-------------0--0-2--0-2---| until (02:04)
A|-----------------------------------------|
E|-0-------------------0-------------------|


(01:40)

  Guitar:
e|---------------------------------------------|
B|---------------------------------------------|
G|-7----7----7--9\-7------7----7----7--6--6-6--|
D|---------------------------------------------|
A|-5----5----5--7\-5------5----5----5--4--4-4--|
E|---------------------------------------------|

e|---------------------------------------------|
B|---------------------------------------------|
G|-7----7----7--9\-7------7----7----7--6/-7-7--|
D|---------------------------------------------|
A|-5----5----5--7\-5------5----5----5--4/-5-5--|
E|---------------------------------------------|

e|---------------------------------------------|
B|---------------------------------------------|
G|-7----7----7--9\-7------7----7----7--6--6-6--|
D|---------------------------------------------|
A|-5----5----5--7\-5------5----5----5--4--4-4--|
E|---------------------------------------------|

e|-----------------------------------------------|
B|-----------------------------------------------|
G|-----------------------------------------------|
D|-5--5------------------------------------------|
A|-3--3----5--5--5-5-5-5--4--4---4-5--5--5-5-5-5-|
E|---------3--3--3-0-3-0--2--2---2-3--3--3-0-3-0-|

e|-------------------------------|
B|-------------------------------|
G|-------------------------------|
D|-5--5--------------------------|
A|-3--3----5--5--5-5-5-5--4--4---|
E|---------3--3--3-0-3-0--2--2---|


(02:17)

Solo:

e|-----------------------------------------------------|
B|-----------------------------------------------------|
G|---------------------------4-2--4-2--4-2--4-5--4-2---|
D|----------0--2--4--5p4-----------------------------5-|
A|-3--2--3---------------5-----------------------------|
E|-----------------------------------------------------|

e|-----------------------------------------------------|
B|-----------------------------------------------------|
G|-2-0--2-0--2-0--2-4--2-0-----0---0---0---0-----------|
D|-------------------------4-----4---2---0-------------|
A|-------------------------------------------2-3p2-----|
E|-------------------------------------------------3---|

e|-----------------------------------------------------|
B|-----------------------------------------------------|
G|---------------------------4-2--4-2--4-2--4-5--4-2---|
D|----------0--2--4--5p4-----------------------------5-|
A|-3--2--3---------------5-----------------------------|
E|-----------------------------------------------------|

e|------------------------------------------------------|
B|------------------------------------------------------|
G|-2-0--2-0--2-0--2-4--2-0------------------------------|
D|-------------------------4-----4-4-4--2-2-2-----------|
A|---------------------------------------------5-5-5--2-|
E|------------------------------------------------------|

e|-----------------------------------|
B|-----------------------------------|
G|-----------------------------------|
D|-5--5------------------------------|
A|-3--3----5------4--4------5----5---|
E|---------3------2--2------3----3---|

e|---------------------------------------|
B|---------------------------------------|
G|---------------------------------------|
D|-5--5----------------------------------|
A|-3--3----5------4------5--5--5-5-5-5---|
E|---------3------2------3--0--3-0-3-0---|

e|---------------------------------|
B|---------------------------------|
G|---------------------------------|
D|-5--5--5-5-5-5-------------------|
A|-3--3--3-0-3-0---5--5--5-5-5-5---|
E|-----------------3--3--3-0-3-0---|

e|-------------------------------|
B|-------------------------------|
G|-------------------------------|
D|-------------------------------|
A|-4--4--4-4-4-4---5--5--5-5-5-5-|
E|-2--2--2-0-2-0---3--3--3-0-3-0-|

e|---------------------------------|
B|---------------------------------|
G|---------------------------------|
D|-5--5--5-5-5-5-------------------|
A|-3--3--3-0-3-0---5--5--5-5-5-5---|
E|-----------------3--3--3-0-3-0---|

e|-------------------------------|
B|-------------------------------|
G|-------------------------------|
D|-5--5--------------------------|
A|-3--3----5--5--5-5-5-5--4--4---|
E|---------3--3--3-0-3-0--2--2---|


(03:04)

e|--------------------------------------|
B|--------------------------------------|
G|--------------------------------------|
D|-0-0-1-2------0-0-0-1-2-----0-0-1-2---|  x16
A|--------------------------------------|
E|--------------------------------------|


  Guitar:
e|------------------------------------------|
B|------------------------------------------|
G|------------------------------------------|
D|------2--1--0-----------------------------|    x12
A|-----------------2--1--0------------------|
E|-0--------------------------3----2----3---|


************************************

| /   slide up
| \   slide down
| h   hammer-on
| p   pull-off

************************************
Добавлено: 05.05.2012
Другие материалы по этой песне:

Страница создана 05.05.2012
http://primanota.ru/cake/mustache-man-wasted-chords.htm
Привет, Гость.
Предлагаем пройти революционный курс по гитаре.
Подарок от PrimaNota.Ru, забирай!