PrimaNota.ru - самый крупный в мире бесплатный архив песенных текстов, аккордов, табулатур и нот


Cake - Mission Hill Theme - таба, бас-таба, видео

Регистрация Запомнить меня
Войти через:  Facebook Google Twitter Vk Yandex Mail.ru

Cake - Mission Hill Theme - таба, бас-таба, видео

Печатать
Просмотров: 152
As recorded by Cake





 

 

Gtr I (E A D G B E) - 'Rhythm Guitar'
Gtr II (E A D G B E) - 'Lead Guitar'
Gtr III (E A D G B E) - 'Trumpet'


  Q=120
 4/4
  Gtr I
  W          E E E E E E S S E   E E E E E E S S E
|----------|-------------------|---------------------|
|----------|-------------------|---------------------|
|----------|-5---5-----5---5-5-|-2---2-----2---2-2---|
|----------|-5---5-----5---5-5-|-2---2-----2---2-2---|
|----------|-3---3-----3-x-3-3-|-3---3-----3-x-3-3---|
|----------|-------------------|-5---5-----5---5-5---|
|
| Gtr II
| W          W                   H       Q   E   S S
|----------|-------------------|---------------------|
|----------|-------------------|---------------------|
|----------|-------------------|---------------------|
|----------|-------------------|---------------------|
|----------|-------------------|-------------------3-|
|----------|-------------------|---------------------|


  E   E   E   E    E  E S S E
|----------------------------------|
|----------------------------------|
|-5-------5-----------5---5-5------|
|-5-------5-----------5---5-5------|
|-3-------3-----------3-x-3-3------|
|----------------------------------|
|
| S S S S S E   S +Q    E   S  S
|----------------------------------|
|---------5-6---8-(8)--------------|
|----------------------------------|
|-----------------------------10---|
|---3-3-3--------------------------|
|---------------------------8------|


  E    E   E    E    E  E S S E
|---------------------------------|
|---------------------------------|
|-2--------2------------2---2-2---|
|-2--------2------------2---2-2---|
|-3--------3------------3-x-3-3---|
|-5--------5------------5---5-5---|
|
| S  S S S S  E   S +Q    E   S S
|---------------------------------|
|---------------------------------|
|----------9-10---9-(9)-------5-5-|
|---10----------------------------|
|-------------------------7-------|
|------8-8----------------8-------|


  E   E   E   E    E  E S S E      E    E   E    E    E  E S S E
|--------------------------------|---------------------------------|
|--------------------------------|---------------------------------|
|-5-------5-----------5---5-5----|-2--------2------------2---2-2---|
|-5-------5-----------5---5-5----|-2--------2------------2---2-2---|
|-3-------3-----------3-x-3-3----|-3--------3------------3-x-3-3---|
|--------------------------------|-5--------5------------5---5-5---|
|
| S S S S S E   S +Q    E   S  S   S  S S S S  E   S +Q    E   S S
|--------------------------------|---------------------------------|
|---------5-6---8-(8)------------|---------------------------------|
|--------------------------------|----------9-10---9-(9)-------5-5-|
|-----------------------------10-|---10----------------------------|
|---3-3-3------------------------|-------------------------7-------|
|---------------------------8----|------8-8----------------8-------|


  E   E   E   E    E  E S S E
|--------------------------------|
|--------------------------------|
|-5-------5-----------5---5-5----|
|-5-------5-----------5---5-5----|
|-3-------3-----------3-x-3-3----|
|--------------------------------|
|
| S S S S S E   S +Q    E   S  S
|--------------------------------|
|---------5-6---8-(8)------------|
|--------------------------------|
|-----------------------------10-|
|---3-3-3------------------------|
|---------------------------8----|


  E    E   E    E    E  E S S E     E   E   E   E    E  E S S E
|---------------------------------|--------------------------------|
|---------------------------------|--------------------------------|
|-2--------2------------2---2-2---|-5-------5-----------5---5-2----|
|-2--------2------------2---2-2---|-5-------5-----------5---5-2----|
|-3--------3------------3-x-3-3---|-3-------3-----------3-x-3-0----|
|-5--------5------------5---5-5---|--------------------------------|
|
| S  S S S S  E   S +Q    E   S S   S S S S S E   S +Q    E   S  S
|---------------------------------|--------------------------------|
|---------------------------------|---------5-6---8-(8)------------|
|----------9-10---9-(9)-------5-5-|--------------------------------|
|---10----------------------------|-----------------------------10-|
|-------------------------7-------|---3-3-3------------------------|
|------8-8----------------8-------|---------------------------8----|


  E    E   E    E    E  E S S E
|---------------------------------|
|---------------------------------|
|-5--------5------------5---5-2---|
|-5--------5------------5---5-2---|
|-3--------3------------3-x-3-0---|
|---------------------------------|
|
| S  S S S S  E   S +Q    E   S S
|---------------------------------|
|---------------------------------|
|----------9-10---9-(9)-------5-5-|
|---10----------------------------|
|-------------------------7-------|
|------8-8----------------8-------|
|
| Gtr III
| W
|---------------------------------|
|---------------------------------|
|---------------------------------|
|---------------------------------|
|---------------------------------|
|---------------------------------|


  E   E   E   E    E  E S S E      E    E   E    E    E  E S S E
|--------------------------------|---------------------------------|
|--------------------------------|---------------------------------|
|-5-------5-----------5---5-5----|-5--------5------------5---5-2---|
|-5-------5-----------5---5-5----|-5--------5------------5---5-2---|
|-3-------3-----------3-x-3-3----|-3--------3------------3-x-3-0---|
|--------------------------------|---------------------------------|
|
| S S S S S E   S +Q    E   S  S   S  S S S S  E   S +Q    E   S S
|--------------------------------|---------------------------------|
|---------5-6---8-(8)------------|---------------------------------|
|--------------------------------|----------9-10---9-(9)-------5-5-|
|-----------------------------10-|---10----------------------------|
|---3-3-3------------------------|-------------------------7-------|
|---------------------------8----|------8-8----------------8-------|
|
| W                                H                  Q    E   E
|--------------------------------|---------------------------------|
|--------------------------------|-----------------------------5---|
|--------------------------------|---------------------------------|
|--------------------------------|---------------------------------|
|--------------------------------|---------------------------------|
|--------------------------------|---------------------------------|


  E  E    Q    H            E  E    Q    H
|-------------------------|--------------------|
|-------------------------|--------------------|
|-------------------------|--------------------|
|-3-----------------------|-5------------------|
|-3-----------------------|-5------------------|
|-1-----------------------|-3------------------|
|
| Gtr III
| E.   S +E  E E. S +E  E   E.   S +E  E Q  Q
|--------------5--3-(3)-3-|-3----3-(3)-3-7--7--|
|-6----6-(6)-6------------|--------------------|
|-------------------------|--------------------|
|-------------------------|--------------------|
|-------------------------|--------------------|
|-------------------------|--------------------|


  E  E    Q    H             E  E    Q     H
|-------------------------|-----------------------|
|-------------------------|-----------------------|
|-5-----------------------|-----------------------|
|-5-----------------------|--3--------------------|
|-3-----------------------|--3--------------------|
|-------------------------|--1--------------------|
|
| E.   S +E  E E. S +E  E    E.   S +E  E +Q   Q
|-8-----------------------|-----------------------|
|------8-(8)-8-8----------|-------8-(8)-6-(6)--5--|
|-----------------9-(9)-9-|-10--------------------|
|-------------------------|-----------------------|
|-------------------------|-----------------------|
|-------------------------|-----------------------|


  E E Q  H           E  E    Q     H        W                E E Q  H
|------------------|----------------------|----------------|-------------*|
|------------------|----------------------|----------------|-------------*|
|------------------|----------------------|-5--------------|-5-----------*|
|-5-5--------------|-5--------------------|-5--------------|-5-----------*|
|-5-5--------------|-5--------------------|-3--------------|-3-----------*|
|-3-3--------------|-3--------------------|----------------|-------------*|
|
| Gtr II
| W                  W                      Q.   E +Q   Q    E E Q  H
|------------------|----------------------|----------------|-------------*|
|------------------|----------------------|----------------|-1-----------*|
|------------------|----------------------|-------------0--|-------------*|
|------------------|----------------------|------2-(2)-----|-------------*|
|------------------|----------------------|-3--------------|-------------*|
|------------------|----------------------|----------------|-------------*|
|
| Gtr III
| Q   Q  S E S E E   E.   S +E  E +Q   Q    W                E E Q  H
|------------------|----------------------|----------------|-0-----------*|
|-3------1-1-1-1-1-|-3----5-(5)-3-(3)--1--|-1--------------|-------------*|
|------------------|----------------------|----------------|-------------*|
|------------------|----------------------|----------------|-------------*|
|------------------|----------------------|----------------|-------------*|
|------------------|----------------------|----------------|-------------*|




--------------------------------------------------------------------------------


Duration Legend
---------------
W - whole; H - half; Q - quarter; E - 8th; S - 16th; T - 32nd; X - 64th; a - acciaccatura
+ - note tied to previous; . - note dotted; .. - note double dotted
Uncapitalized letters represent notes that are staccato (1/2 duration)
Irregular groupings are notated above the duration line
Duration letters will always appear directly above the note/fret number it represents the
duration for.  Duration letters with no fret number below them represent rests.  Multi-
bar rests are notated in the form Wxn, where n is the number of bars to rest for.  Low
melody durations appear below the staff

Tablature Legend
----------------
 h   - hammer-on
 p   - pull-off
 b   - bend
 pb  - pre-bend
 r   - bend release (if no number after the r, then release immediately)
 /\  - slide into or out of (from/to "nowhere")
 s   - legato slide
 S   - shift slide
 - natural harmonic
[n]  - artificial harmonic
n(n) - tapped harmonic
 ~   - vibrato
 tr  - trill
 T   - tap
 TP  - trem. picking
 PM  - palm muting
\n/  - tremolo bar dip; n = amount to dip
 \n  - tremolo bar down
 n/  - tremolo bar up
/n\  - tremolo bar inverted dip
 =   - hold bend; also acts as connecting device for hammers/pulls
 <> - volume swell (louder/softer)
 x   - on rhythm slash represents muted slash
 o   - on rhythm slash represents single note slash

Misc Legend
-----------
 |  - bar
||  - double bar
||o - repeat start
o|| - repeat end
*|  - double bar (ending)
 :  - bar (freetime)
 $  - Segno
 &  - Coda
Tempo markers -  = BPM(8/16=s8/s16), where s8 = swing 8ths, s16 = swing 16ths

Добавлено: 09.06.2012
Другие материалы по этой песне:

Страница создана 26.05.2012
http://primanota.ru/cake/mission-hill-theme-chords.htm
Привет, Гость.
Предлагаем пройти революционный курс по гитаре.
Подарок от PrimaNota.Ru, забирай!