PrimaNota.ru - самый крупный в мире бесплатный архив песенных текстов, аккордов, табулатур и нот


Caesars - Stuck With You - таба, видео

Регистрация Запомнить меня
Войти через:  Facebook Google Twitter Vk Yandex Mail.ru

Caesars - Stuck With You - таба, видео

Печатать
Просмотров: 148
very simple song not very hard at all but very cool to play
standard tuning
2 guitars


1st Guitar
E|-------------------------------------------9---------------------------|
B|-----11-----11--------13-----13----11-----------11------------11-------|
G|-12------------12-14------------14-----------------14--14\12-----------|
D|-----------------------------------------------------------------------|
A|-----------------------------------------------------------------------|
E|-----------------------------------------------------------------------|
play this 2 times
                                                 ^
                                                 ^ 
2nd Guitar. This comes in on the 2nd time thats ^^^ played
E|-----------------------------------------------------------------------|
B|-----------------------------------------------------------------------|
G|-----------------------------------------------------------------------|
D|-----------------------------------1414141414141414--------------------|
A|-1212121212121212-1414141414141414-1212121212121212-14141414-12121212--|
E|-1010101010101010-1212121212121212------------------12121212-10101010--|
plays all the way through the song untill it stops at the end of the 2nd chorus


1st Guitar. This comes in at the start of the chorus "and now im think 2 myself"
E|-------------------------------------------9---------------------------|
B|-----11-----11--------13-----13----11-----------11------------11-------|
G|-12------------12-14------------14-----------------14--14\12-----------|
D|-----------------------------------------------------------------------|
A|-----------------------------------------------------------------------|
E|-----------------------------------------------------------------------|
play 3 times
then this comes back in again at the start of the second chorus but plays
for 16 times
on the 6th time the 2nd guitar stops and then comes back in on the 7th time with

    D   A   E   A  E
E|--2---0---0---0--0-----------------------------------------------------|
B|--3---2---0---2--0-----------------------------------------------------|
G|--2---2---0---2--0-----------------------------------------------------|
D|--0---2---1---2--1-----------------------------------------------------|
A|-----------------------------------------------------------------------|
E|-----------------------------------------------------------------------|

then the 2nd guitar plays this untill the end
E|-----------------------------------------------------------------------|
B|-----------------------------------------------------------------------|
G|-----------------------------------------------------------------------|
D|-----------------------------------1414141414141414--------------------|
A|-1212121212121212-1414141414141414-1212121212121212-14141414-12121212--|
E|-1010101010101010-1212121212121212------------------12121212-10101010--|


And thats it i hope this is alright. Good Luck
Добавлено: 05.07.2012
Другие материалы по этой песне:
  • Аккорды и текст

Страница создана 05.07.2012
http://primanota.ru/caesars/stuck-with-you-chords.htm
Привет, Гость.
Предлагаем пройти революционный курс по гитаре.
Подарок от PrimaNota.Ru, забирай!