PrimaNota.ru - самый крупный в мире бесплатный архив песенных текстов, аккордов, табулатур и нот


Caesars - Its Not The Fall That Hurts - текст песни, таба, видео

Регистрация Запомнить меня
Войти через:  Facebook Google Twitter Vk Yandex Mail.ru

Caesars - Its Not The Fall That Hurts - текст песни, таба, видео

Печатать
Просмотров: 336
                CAESARS - IT'S NOT THE FALL THAT HURTS


Intro-Chords:

 F#m--F#m-F#m--Hm-Hm--A-A--E-E--E-E--A-A--E-E

Intro-Solo:

e|------------------------------------------------------------|
B|------------------------------------------------------------|
G|--------------------9---------------------------------------|
D|--11---9-11-12---11---11-9------------9--11--9-9------------|
A|---------------------------11------12------------12-12-11-9-|
E|------------------------------12----------------------------|

e|-----------------------------------------------------------|
B|-----------------------------------------------------------|
G|--------------------9--------------------------------------|
D|--11---9-11-12---11---11-9------------9--11--9-9-----------|
A|---------------------------11------12------------12-12-----|
E|------------------------------12---------------------------|


F# throughout the whole verses

All my life i've been fall- fall- falling apart,
Been tumbling down quick first right from the start
I never learned just get up and go on
Until I'm just knocked right off of my feet

CHORUS: THE SAME AS THE INTRO
F#m     Hm Hm    A A        E E E E
But it's not the fall that hurts
     A A      E E     F#m  F#m F#m
It's when you hit the ground
         Hm Hm    A A      E E  EE
Cuz it's not the fall that hurts
     A A              E E
It's when you hit the ground

Stumblin' with every step I take
And it seems I can't get a grip
I'm soon gonna slip
And then I look down
I see the fur ground
Is closening fast again
And then boom

But it's not the fall that hurts
It's when you hit the ground
Cuz it's not the fall that hurts
It's when you hit the ground

F#m                            E
Fall Fall Fall Fall Falling apart
F#m                            E
Fall Fall Fall Fall Falling apart
F#m                            E
Fall Fall Fall Fall Falling apart


But it's not the fall that hurts
It's when you hit the ground
Cuz it's not the fall that hurts
It's when you hit the ground
Добавлено: 25.07.2012
Другие материалы по этой песне:
  • Аккорды и текст

Страница создана 28.02.2012
http://primanota.ru/caesars/its-not-the-fall-that-hurts-chords.htm
Привет, Гость.
Предлагаем пройти революционный курс по гитаре.
Подарок от PrimaNota.Ru, забирай!