PrimaNota.ru - самый крупный в мире бесплатный архив песенных текстов, аккордов, табулатур и нот


Caesars Palace - Fun And Games - аккорды и текст, видео

Регистрация Запомнить меня
Войти через:  Facebook Google Twitter Vk Yandex Mail.ru

Caesars Palace - Fun And Games - аккорды и текст, видео

Печатать
Просмотров: 138
Fun And Games
Caesars Palace
Group:  Caesars Palace
Song:   Fun & Games
Album: Cherry Kicks

C      |-3----------|
        |-5----------|
        |-5----------|
        |-5----------|
        |-3----------|
        |------------|

#A    |-1----------|
        |-3----------|
        |-3----------|
        |-3----------|
        |-1----------|
        |------------|

F       |-1----------|
        |-1----------|
        |-2----------|
        |-3----------|
        |-3----------|
        |-1----------|

The main chords are C   #A    F     C    Play them through the whole song.
On the last C in each round play this

|-3-3-3-3-3-3-3-3---|
|-5-5-5-5-6-5-3-5---|
|-5-5-5-5-5-5-5-5---|
|-5-5-5-5-5-5-5-5---|
|-3-3-3-3-3-3-5-3---|
|----------------------|

The second guitar plays this

|-3---3---3---3----6---6---6---6---------------------3---3---3---3-|
|---3---3---3---3----6---6---6---6---6---6---6---3---3---3---3----|
|-------------------------------------5---5---5---5-------------------|
|-----------------------------------------------------------------------|
|-----------------------------------------------------------------------|
|-----------------------------------------------------------------------|
Transcribber: Olle Haggdahl

     
Добавлено: 23.06.2013
Другие материалы по этой песне:
  • Аккорды и текст

Страница создана 23.06.2013
http://primanota.ru/caesars-palace/fun-and-games-chords.htm
Привет, Гость.
Предлагаем пройти революционный курс по гитаре.
Подарок от PrimaNota.Ru, забирай!