PrimaNota.ru - самый крупный в мире бесплатный архив песенных текстов, аккордов, табулатур и нот


Bts - Butterfly - таба, видео

Регистрация Запомнить меня
Войти через:  Facebook Google Twitter Vk Yandex Mail.ru

Bts - Butterfly - таба, видео

Печатать
Просмотров: 916
Уроки эстрадного вокала в Санкт-Петербурге
-------------------------------------------------------------------------------
                          Butterfly  - BTS (방탄소년단)
-------------------------------------------------------------------------------
Tabbed by:
E-mail:

Tuning: standard
~this tabs is pretty much just the guitar part within the beginning~

e|-----4--------4---------4---------4---------4---------4---------4---------4-------8h9-8-6----|
B|---4---4----4---4-----4----4----4---4-----4---4-----4---4-----2---2-----2---2-------------9--|
G|--6-6-6-6--6-6-6-6---6-6-6--6--6-6-6-6---5-5-5-5---5-5-5-5---3-3-3-3---3-3-3-3---------------|
D|-4--------4-----------------------------3---------3------------------------------------------|
A|--------------------4---------4-----------------------------1---------1----------------------|
E|---------------------------------------------------------------------------------------------| x2
That's pretty much all the guitar on the song. It's the same on the second verse except you don't
do the hammer on part. 
Ps. When you repeat this phrase within the verses, you just end it on the 3( aka the B) of that last chord.
~
| h   hammer-on
~
Добавлено: 16.06.2016
Другие материалы по этой песне:
  • Аккорды и текст

Страница создана 16.06.2016
http://primanota.ru/bts/butterfly-chords.htm
Привет, Гость.
Предлагаем пройти революционный курс по гитаре.
Подарок от PrimaNota.Ru, забирай!