PrimaNota.ru - самый крупный в мире бесплатный архив песенных текстов, аккордов, табулатур и нот


Bryan Adams - Summer of 69 easy version - таба, видео

Регистрация Запомнить меня
Войти через:  Facebook Google Twitter Vk Yandex Mail.ru

Bryan Adams - Summer of 69 easy version - таба, видео

Печатать
Просмотров: 148


Tabbed by: F-Force
Email: maddawg27@gmail.com

Tuning: Standard

Notes:
I looked around for this tab and saw many of the same thing - incorrect tabs. I've made it
easy to follow and play

it may look difficult at first but learn the chords and you'll get it in 5 minutes like I did.
This song is quite easy, the second song I ever learnt infact  Chords are D, A, G, Bm; Dsus2/4
and Asus2/4 are done by moving your 3rd and 4th finger to alter the tone (see tabs). I've
aligned verse 1 with the music, chorus and other verses should be easy to follow.

Layout: Verse 1, Chorus, Verse 2, Chorus, Verse 3, Chorus, Verse 4, Chorus, outro





-Intro amp; verse


   --------D riff--------	   --------A riff-------
        D       D       D              A       A       A

e---0---2---3---2---0---2-------|--0---0---0---0---0---0-----|
B---3---3---3---3---3---3-------|--0---2---3---2---0---2-----|
G---2---2---2---2---2---2-------|--2---2---2---2---2---2-----|
D---0---0---0---0---0---0-------|--2---2---2---2---2---2-----|
A---0---0---0---0---0---0-------|--0---0---0---0---0---0-----|
E-------------------------------|----------------------------|

Verse 1:
  I got my first real six string, bought it at the five amp; dime
  Played it till my fingers bled, was the summer of 69
  Me and some guys from school,   had a band and tried real hard
  Jimmy quit Jody got married,    should've known we'd never get far

Verse 2:
Ain't no use complaining, when you've got a job to do
Spent my evenings down at the drive in, and that's where I met you, yeah

Verse 4:
And now the times are changing, look at everthing thats come and gone
Sometimes when I play my old six string, I think about ya and wonder what went wrong






-Chorus


    Bm         A                  D          G             D riff  A riff

e---2-2-2-2-2--0-0-0-0-0----------2-2-2-2-2--3-3-3-3-3---|
B---3-3-3-3-3--2-2-2-2-2----------3-3-3-3-3--0-0-0-0-0---|
G---4-4-4-4-4--2-2-2-2-2----------2-2-2-2-2--0-0-0-0-0---|
D---4-4-4-4-4--2-2-2-2-2----------0-0-0-0-0--0-0-0-0-0---|
A---0-0-0-0-0--0-0-0-0-0----------0-0-0-0-0--2-2-2-2-2---|
E--------------------------------------------3-3-3-3-3---|

  Bm       A			  D		     G
  But when I look back now,       those summers seemed to last forever
  And if I had the choice,        yeah, I'd always wanna be there

  Bm	 	A		D riff      A riff
  Those were the best days of my life







-3rd verse

    F	       Bb 	  C	     Bb

e---1-1-1-1-1--1-1-1-1-1--0-0-0-0-0--1-1-1-1-1---|
B---1-1-1-1-1--2-2-2-2-2--1-1-1-1-1--2-2-2-2-2---|
G---2-2-2-2-2--2-2-2-2-2--0-0-0-0-0--2-2-2-2-2---|
D---3-3-3-3-3--2-2-2-2-2--2-2-2-2-2--2-2-2-2-2---|
A---3-3-3-3-3--1-1-1-1-1--3-3-3-3-3--1-1-1-1-1---|
E---1-1-1-1-1--1-1-1-1-1-------------1-1-1-1-1---|


  F	      Bb	   C			       Bb
  Man we were killin time, we were young and restless, we needed to unwind

  F	     Bb            C        Bb	        D riff      A riff
  I guess nothin can last forever, forever...


| /  slide up
|   slide down
| h  hammer-on
| p  pull-off
| ~  vibrato
| +  harmonic
| x  Mute note
===============================================================================


Добавлено: 15.08.2013
Другие материалы по этой песне:
  • Аккорды и текст

Страница создана 15.08.2013
http://primanota.ru/bryan-adams/summer-of-69-easy-version-chords.htm
Привет, Гость.
Предлагаем пройти революционный курс по гитаре.
Подарок от PrimaNota.Ru, забирай!