PrimaNota.ru - самый крупный в мире бесплатный архив песенных текстов, аккордов, табулатур и нот


Brotherhood Of Man - Figaro - текст песни, бас-таба, видео

Регистрация Запомнить меня
Войти через:  Facebook Google Twitter Vk Yandex Mail.ru

Brotherhood Of Man - Figaro - текст песни, бас-таба, видео

Печатать
Просмотров: 141
Авторы музыки: Tony Hiller, Lee Sheriden, Martin Lee

-------------------------------------------------------------------------------
                             FIGARO - BROTHERHOOD OF MAN
-------------------------------------------------------------------------------
Tabbed by: Tyran
E-mail: caitsullivan57@gmail.com

This is the version for Disco Inferno: The Musical
Tuning:EADG

G|-----------------------------------------------------|
D|-2---2---2---2---0---0---0---0-0-2---2-----2---2-0-0-|
A|---2---2---0---0---0---0---0-------2---2-0---0-------|
E|-----------------------------------------------------|
  A
G|-----------------------------------------------------------------|
D|-0---0---0---0-----------0---0---0---0---0---0-----------0---0---|
A|---0---0---0---0---5---5---0---0---0---0---0---0---5---5---0-----|
E|-----------------3---3---------------------------3---3---------1-|
  B
G|-----------------------------------------------------------------2-2-2-2-0-----|
D|-----------0---0-------------0---0-------------0---0-----2-2-2-------------3-2-|
A|-------1-3---0-----------1-3---0-----------1-3---0-------------0---------------|
E|-3-3-3-----------1-3-3-3-----------1-3-3-3-----------1-0-----------------------|
  C
G|-----------------------------0-1-2-0-------------------------------|
D|-0---0-----------0---0---2-4---------4-2-0---0-----------0---0---0-|
A|---0---0---5---5---0---0-------------------0---0---5-------0---0---|
E|---------3---3-----------------------------------3---3-3-----------|
  D
G|-----------------------------------------------------|
D|-2---2-----2---2-0---0---0---0-0-2---2-----2---2-0-0-|
A|---2---2-0---0-----0---0---0-------2---2-0---0-------|
E|-----------------------------------------------------|
  E
G|-------------------------------------------|
D|-------------------------------------------|
A|-----------FOR E REPEAT SECTION A----------|
E|-------------------------------------------|
  F
G|-------------------------------------------|
D|-------------------------------------------|
A|-----------FOR F REPEAT SECTION B----------|
E|-------------------------------------------|
  G
G|-----------------------------0-1-2-0-------------------------------|
D|-0---0-----------0---0---2-4---------4-2-0---0-----------0---0---0-|
A|---0---0---5-------0---0-------------------0---0---5-------0---0---|
E|---------3---3-3---------------------------------3---3-3-----------|

G|----------------------------------------------------|
D|--2---2-----2---2-0---0---0---0-0-2---2-----2---2-0-|
A|----2---2-0---0-----0---0---0-------2---2-0---0-----|
E|----------------------------------------------------|
  H
G|-----------------------------0-1-2-0---------------------------------0-1-2-0-----|
D|-0---0-----------0---0---2-4---------4-2-0---0-----------0---0---2-4---------4-2-|
A|---0---0---5-------0---0-------------------0---0---5-------0---0-----------------|
E|---------3---3-3---------------------------------3---3-3-------------------------|

G|--------------2---|
D|-0---0----------0-|
A|---0---0---2------|
E|---------3--------|
===============================================================================
Добавлено: 26.06.2015
Другие материалы по этой песне:
  • Аккорды и текст

Страница создана 12.03.2012
http://primanota.ru/brotherhood-of-man/figaro-chords.htm
Привет, Гость.
Предлагаем пройти революционный курс по гитаре.
Подарок от PrimaNota.Ru, забирай!