PrimaNota.ru - самый крупный в мире бесплатный архив песенных текстов, аккордов, табулатур и нот


Bring Me The Horizon - The Comedown - текст песни, таба, видео

Регистрация Запомнить меня
Войти через:  Facebook Google Twitter Vk Yandex Mail.ru

Bring Me The Horizon - The Comedown - текст песни, таба, видео

Печатать
Просмотров: 378
Уроки эстрадного вокала в Санкт-Петербурге
wait for the soft part fro 0:00 to 0:09 then start.

tr=tremelo pick
h=hammer-on
p=pull off
b-bend

--------------------------------------------|(x2)
--------------------------------------------|
--------------------------------------------|
--------------------------------------------|
-13p12-0-0-0-0-0-0-13p12--------------------|
-------0-0-0-0-0-0-------10(tr)13(tr)12(tr)-|

-----------------------------------------------|(x2)
-----------------------------------------------|
-----------------------------------------------|
-11h13p11-------------13p11--------------------|
----------0-0-0-0-0-0--------------------------|
----------0-0-0-0-0-0-------10(tr)13(tr)12(tr)-|

---------------------------------------------------------------|
---------------------------------------------------------------|
---------------------------------------------------------------|
---------------------------------------------------------------|
-13p12-0-0-0--0-0-0---00-0-0-5-3----0-0-0--0-0-0---0-0-0-0-0-0-|
-------0-0-0--0-0-0---00-0-0-----4b-0-0-0--0-0-0---0-0-0-0-0-0-|

--------------------------------------------------------------|
--------------------------------------------------------------|
--------------------------------------------------------------|
--------------------------------------------------------------|
-13p12-0-0-0--0-0-0--0-0-0--1-44-1--13p12-0-0-0--0-0-0-0-0-0--|
-------0-0-0--0-0-0--0-0-0--1-44-1--------0-0-0--0-0-0-0-0-0--|

--------13-16-15-12-13b---------------------13-16-15-12-13b-|
------------------------------------------------------------|
------------------------------------------------------------|
---------------------------7-9-10p9--<==(x2)----------------|
-2-66-1-----------------------------9-7-<=------------------|
-2-66-1-----------------------------------------------------|
      ^ let the 1st fret ring.


--------------------------------------------|
--------------------------------------------|(x2)
--------------------------------------------|
--------------------------------------------|
-13p12-0-0-0-0-0-0-13p12--------------------|
-------0-0-0-0-0-0-------10(tr)13(tr)12(tr)-|

-
-
-----------------------------------------------|
-----------------------------------------------|
-13p12-0-0-0--00-0-0-0--00-0-0-0--0-0--5-5-7-7-|
-------0-0-0--00-0-0-0--00-0-0-0--0-0--5-5-7-7-|

-----------------------------------------------------------|
-----------------------------------------------------------|
-----------------------------------------------------------|
----------------------3*-----------------------------------|
-13p12-0-0-0-0-0-0-0-----13p12-0-0-0--0-0-0--00-0-0-5-3----|
-------0-0-0-0-0-0-0-----------0-0-0--0-0-0--00-0-0-----4b-|


---------------------------------------------|
---------------------7p6p4-------------------|
---------------------------7p6p4-------------|
---------------------------------7p6p4-------|
-0-0-0~-0-0-0--0-0-0-------------------7p6p4-|
-0-0-0~-0-0-0--0-0-0-------------------------|


--------------------------------------------------------------|
--------------------------------------------------------------|
--------------------------------------------------------------|
--------------------------------------------------------------|
-13p12-0-0-0-0-0-0-0-0----------------------------------------|
-------0-0-0-0-0-0-0-0--1(whammy bar half down than half up)--|


then repeat intro as the chorus.


breakdwon at 2:03
---------------------------------|(x2)
---------------------------------|
---------------------------------|
---------------------------------|
-000-000-0-0-0-0-0-0-2-0-5-0-2-3-| <=
-000-000-0-0-0-0-0-0-2-0-5-0-2-3-|   \
                                     \
                                      \
---------------------------------------------|
---------------------------------------------|
---------------------------------------------|
---------------------------------------------|
-000-000-0-0-0-0-0-00-0-0-0-0-0-0-00-0-0-0-0-|
-000-000-0-0-0-0-0-00-0-0-0-0-0-0-00-0-0-0-0-|

--------------------------------------|
--------------------------------------|
--------------------------------------|
--------------------------------------|
-000-000-0-0-0-0-0--000-000-0-0-0-0-0-|
-000-000-0-0-0-0-0--000-000-0-0-0-0-0-|

---------------------------------------------------------------------------|(x2)
---------------------------------------------------------------------------|
----------------------7p0-10p0-7h10----------------------------------------|
-000-000-0-0-0-0-0--0---------------000-000-0-0-0-0-0-00-0-0-0-00-0-0-0-00-|
-000-000-0-0-0-0-0--0---------------000-000-0-0-0-0-0-00-0-0-0-00-0-0-0-00-|


-----------------------------------------------------------|
-----------------------------------------------------------|
-------------------------------6(x10)--------------2(x10)--|
-------------------------------9-------------------5-------|
-5-2-1-0-0-0-------5-2-1-0-0-0---------5-2-1-0-0-0---------|
-5-2-1-0-0-0-pause-5-2-1-0-0-0---------5-2-1-0-0-0---------|
                  (repeat this part about 2 and a half times)

pause again
----------------------------------------------------|
----------------------------------------------------|
-------6(x10----------------------------------------|
-------9--------------------------------------------|
-0-0-0-------0-0-0--0-0-0-5-3-2-000-000-5-3-2-0-0-0-|
-0-0-0-------0-0-0--0-0-0-5-3-2-000-000-5-3-2-0-0-0-|
                   (repeat this part of the breakdown 3 times)

-------------------------------------------------------------|
-------6(x15)---6(x15)-----6(x5)---10(x8)--------10--6--2----|
-------9--------9----------9-------13------------13--9--5----|
-------------------------------------------------------------|
-0-0-0--------0--------0-0------0---------0-0-0-----------0~-|
-0-0-0--------0--------0-0------0---------0-0-0-----------0~-|

--------------------------------------------|(x2)
--------------------------------------------|
--------------------------------------------|
--------------------------------------------|
-13p12-0-0-0-0-0-0-13p12--------------------|
-------0-0-0-0-0-0-------10(tr)13(tr)12(tr)-|

-----------------------------------------------|(x2)
-----------------------------------------------|
-----------------------------------------------|
-11h13p11-------------13p11--------------------|
----------0-0-0-0-0-0--------------------------|
----------0-0-0-0-0-0-------10(tr)13(tr)12(tr)-|


----------------------------------------------------------------------|
----------------------------------------------------------------------|
----------------------------------------------------------------------|
----------------------------------------------------------------------|
-13p12-0-0-0--0-0-0---00-0-0---------------0-0-0--0-0-0---0-0-0-0-0-0-|
-------0-0-0--0-0-0---00-0-0---10-12-13----0-0-0--0-0-0---0-0-0-0-0-0-|
Добавлено: 09.03.2012
Другие материалы по этой песне:

Страница создана 09.03.2012
http://primanota.ru/bring-me-the-horizon/the-comedown-chords.htm
Привет, Гость.
Предлагаем пройти революционный курс по гитаре.
Подарок от PrimaNota.Ru, забирай!