PrimaNota.ru - самый крупный в мире бесплатный архив песенных текстов, аккордов, табулатур и нот


Bring Me The Horizon - Chelsea Smile - текст песни, таба, бас-таба, видео

Регистрация Запомнить меня
Войти через:  Facebook Google Twitter Vk Yandex Mail.ru

Bring Me The Horizon - Chelsea Smile - текст песни, таба, бас-таба, видео

Печатать
Просмотров: 545
-------------------------------------------------------------------------------
			     CHELSEA SMILE - Bring Me the Horizon
-------------------------------------------------------------------------------
Tabbed by: JakIsDead
Email: jakanathematize@yahoo.com

Tuning: Drop A# (C,G,D#,A#,F,A#)

For some exporting GP files to ASCII isn't working for me right now.
So here's my attempt at manual tabbing =] This is Lee Malia's lead part.
Tempo's roughly 193 but i suggest that you follow the song to pick up the rhythm.

Key:
= Hammer on/off
* Palm Mute
~ Vibrato
/ Rest
^ Bend
x Dead Note

*RIFF 1*
"I've got a secret.."
C |-----------------------------------------------------------------|
G |-----------------------------------------------------------------|
D#|-----------------------------------------------------------------|
a#|-----------------------------------------------------------------|
F |-5=3---3-------------------------5=3---3-----3---5=3-5=6-----6---|
A#|-----0*----0*0*0*--0*0*--0*0*0*0*----0*----0*--0*----------0*--0*|


C |-----------------------------------------------------------------|
G |-----------------------------------------------------------------|
D#|-----------------------------------------------------------------|
a#|-----------------------------------------------------------------|
F |-5=3---3-------------------------5-------------------------------|
A#|-----0*----0*0*0*--0*0*--0*0*0*0*--6-0=5-0-0=3-0-0=3-0-0=3-666666|


*RIFF 2*
-galloppy part-
C |----|
G |----|
D#|----|
a#|----|
F |-0*-|
A#|-0*-|  << Listen to the song here and work out the gallopping pattern


*RIFF 3*
"It sits in silence.."
C |---------------------------------|
G |---------------------------------|
D#|---5-----------------------------|
a#|-------0-------------------------|
F |-6---6---------------------------|
A#|-----------0*0*0---0*0*0---0*0*0*|

C |---------------------------------|
G |---------------------------------|
D#|---5-------------------8---------|
a#|-------0-------------------------|
F |-6---6-------------------6=5-----|
A#|---------0*0*0---0*0*0*------0*--|

C |---------------------------------|
G |---------------------------------|
D#|---5-----------------------------|
a#|-------0-------------------------|
F |-6---6---------------------------|
A#|-----------0*0*0---0*0*0---0*0*0*|

C |---------------------------------|
G |---------------------------------|
D#|---5---------------8-------------|
a#|---------------------------------|
F |-6---6-6~--6-6-6-6---6-9~--9-9-9-|
A#|---------------------------------|

   --- x2 ---


*RIFF 4*
"This disease.."
C |-------------------------|
G |-------------------------|
D#|-7-----3-----------------|
a#|-7-x16-3-x16-5-----7-----|
F |-5-----1-----5-x16-7-x16-|
A#|-------------5-----7-----|


*RIFF 5*
"The only thing I really know.."
C |------------------------------------------------------------------|
G |------------------------------------------------------------------|
D#|------------------------------------------------------------------|
a#|------------------------------------------------------------------|
F |--------------------------------------3---3=5---------3---3=5-----|
A#|-8---8---8-8~----5--0=5-0=5=7---0---0---0-----0-0---0---0-----0-8-|

C |------------------------------------------------------------------|
G |--------------------------------------6-6-6-6-6-6-6-6-6-6-6-6-6---|
D#|--------------------------------------9-9-9-9-9-9-9-9-9-9-9-9-9---|
a#|------------------------------------------------------------------|
F |------------------------------------------------------------------|
A#|-----8---8-8~----5--0=5-0=5=7---0-------------------------------8-|

C |------------------------------------------------------------------|
G |------------------------------------------------------------------|
D#|------------------------------------------------------------------|
a#|------------------------------------------------------------------|
F |--------------------------------------3---3=5---------3---3=5-----|
A#|-8---8---8-8~----5--0=5-0=5=7---0---0---0-----0-0---0---0-----0-8-|

C |----------------------------------|
G |----------------------------------|
D#|----------------------------------|
a#|----------------------------------|
F |----------------------------------|
A#|-8---8---8-8~----5--0=5-0=5=7-7-7-|


*RIFF 6*
"In regret.."
C |----|
G |----|
D#|----|
a#|----|
F |-0*-|
A#|-0*-|  << Another riff where you can just follow the pattern in the song


*RIFF 3*
"I may look happy.."

*RIFF 7*
-slow breakdown-
C |-----------------------------|
G |-----------------------------|
D#|-----------------------------|
a#|-1-00---------1-00---xxxxxxxx|
F |-1-00---------1-00---xxxxxxxx|
A#|-1-00---4^----1-00---xxxxxxxx|

   --- x4 solo then x4 with backing ---


*RIFF 8*
"We all carry these things..."
C |-------------------|
G |-------------------|
D#|-3-----5-----7-----|
a#|-3-x16-5-x16-7-x32-|
F |-1-----3-----5-----|
A#|-------------------|

   --- x2 ---


*RIFF 9*
-the world is ending part-
C |-------------|
G |-------------|
D#|-7-----5-----|
a#|-7-x32-5-x32-|
F |-5-----3-----|
A#|-------------|

   --- x2 ---


*RIFF 10*
-awesome but slightly out-of-place trancey breakdown-
C |------------------------|
G |------------------------|
D#|-7-----5----------3-----|
a#|-7-x28-5-x4-5-----3-x16-|
F |-5-----3----5-x16-1-----|
A#|------------5-----------|

   --- x6 ---


*RIFF 2*


*RIFF 11 (if you can call it a riff)*
"I've got a secret.."
C |---|
G |---|
D#|---|
a#|-/-|
F |-/-|
A#|-/-|  << This rest lasts 6 bars


*RIFF 12*
"I know something you don't know.."
C |---------------------------------|
G |---------------------------------|
D#|---------------------------------|
a#|---------------------------------|
F |-5-------------------------------|
A#|---6-0=5-0-0=3-0-0=3-0-0=3-6-6-6-|


*RIFF 1*


*RIFF 13*
"(..you will never) know.."
C |-----------------------------------------------------------------|
G |-----------------------------------------------------------------|
D#|-----------------------------------------------------------------|
a#|-----------------------------------------------------------------|
F |-5=3---3-------------------------5=3---3-----3---5=3-5=6-----6---|
A#|-----0*----0*0*0*--0*0*--0*0*0*0*----0*----0*--0*----------0*--0*|

C |-----------------------------------------------|
G |-----------------------------------------------|
D#|-----------------------------------------------|
a#|---------------------------------/-------------|
F |-5=3---3-------------------------/-------------|
A#|-----0*----0*0*0*--0*0*--0*0*0*0*/-------------|  << Rest lasts 2 bars

C |----|
G |----|
D#|----|
a#|----|
F |-0*-|
A#|-0*-|


.. I am NEVER doing that again!

I hope you like this tab. If you do please feel free to comment/rate and maybe even 
my profile and check out my music if you're feeling especially awesome =]

Hugs and kisses
Jak (JakIsDead) x
Добавлено: 01.08.2013
Другие материалы по этой песне:

Страница создана 11.06.2012
http://primanota.ru/bring-me-the-horizon/chelsea-smile-chords.htm
Привет, Гость.
Предлагаем пройти революционный курс по гитаре.
Подарок от PrimaNota.Ru, забирай!