PrimaNota.ru - самый крупный в мире бесплатный архив песенных текстов, аккордов, табулатур и нот


Bring Me The Horizon - Count Your Blessings - таба, видео

Регистрация Запомнить меня
Войти через:  Facebook Google Twitter Vk Yandex Mail.ru

Bring Me The Horizon - Count Your Blessings - таба, видео

Печатать
Просмотров: 288
               Bring Me The Horizon count your blessings
                  


1..PRAY FOR PLAGUES..

Transcribed by Jonathan Casper (confinedforever)

Gtr 1 - Tuning Drop B - (B F# B E G# C#)

/ - SLIDE UP TO          h - HAMMER ON
\ - SLIDE DOWN TO        p - PULL OF
~ - VIBRATO              * - PALM MUTE
" - TREMOLO PICKING     [] - ARTIFICAL HARMONIC

I ONLY COULD TAB ONE GUITAR AND THE SOLO IS NOT IN THIS TAB!!!

I WILL POST THE SOLO SOON!!


    0:00 - 0:03
|-----------------------------------------------------------|
|-----------------------------------------------------------|
|--------------------------------------------------8h11p8---|
|--1-4-3-1------------------------------7h10p7--------------|
|--1-4-3-1-----6--9----5h8p5--4h7p4-------------------------|
|--1-4-3-1--0-------0---------------0-0--------0-0----------|
   * * *    *                       * *        * *

  0:04 - 0:05
|--------------------------------------|
|--------------------------------------|
|--7---6-6-9-----------------8-10-11---|
|---------------------7-9-10-----------|
|--------------7-9-10------------------|
|----0---------------------------------|
     *

   0:06 - 0:13
|-----------------------------------------------------------|
|-----------------------------------------------------------|
|-----------------------------------------------------------| x2
|--------------------3----------------------7-----6---------|
|----5h8-4-----5-----------6------5h8-4-----------------8---|
|--0-------0-0---0-0---0-0----0-0-------0-0---0-0---0-0-----|
   *       * *   * *   * *    * *       * *   * *   * *

 0:14 - 0:15
|------------|
|------------|
|---[12]~ ---|
|------------|
|------------|
|------------|

  0:16 - 0:49
|-----------------------------------------------------------|----------- \
|-----------------------------------------------------------| ---------- \
|-----------------------------------------------------------|  --------- \
|--------------------3----------------------7-----6---------|    \ both- \ x2
|----5h8-4-----5-----------6------5h8-4-----------------8---|    ------- \
|--0-------0-0---0-0---0-0----0-0-------0-0---0-0---0-0-----|     ------ \
   *       * *   * *   * *    * *       * *   * *   * *             \
                                                                     \
|---------------------------------------------------------------------|
|---------------------------------------------------------------------|
|------7h10-6------7-----10-----8------7h10-6-----6h9---7h10---8h11---|
|---------------------------------------------------------------------|
|---------------------------------------------------------------------|
|--0-0---------0-0---0-0----0-0----0-0--------0-0-----0------0--------|
   * *         * *   * *    * *    * *        * *     *      *

   0:50 - 0:53
|---------------------------------------------------|
|---------------------------------------------------|
|----------------------------[12]bend--[14]bend-----|
|---------------------------------------------------|
|--5----7----8----4---------------------------------|
|----00---00---00---00-00-00------00-00-----00-00---|
     **   **   **   ** ** **      ** **     ** **

   0:54 - 0:57
|-----------------------------------------------------|
|-----------------------------------------------------|
|----------------------------[14]bend--[12]bend-------|
|-----------------------------------------------------|
|--5----7----8----4-------------------------5-4-------|
|----00---00---00---00-00-00------00-00---------4-3---|
     **   **   **   ** ** **      ** **

  0:58 - 1:00
|--------------|
|--------------|
|--------------|
|--1-4-5-1-1---|
|--1-4-5-1-1---|
|--1-4-5-1-1---|

   1:01
|-------------|
|-------------|
|-------------|
|--0-0--0-0---|
|--0-0--0-0---|
|--0-0--0-0---|
   * *  * *

  1:02 - 1:08
|-------------------------------------------------|
|-------------------------------------------------|
|-------------------------------------------------|
|--0-0--0-0---0-00-00-00---0000000--3-1-0-4-3-1---|
|--0-0--0-0---0-00-00-00---0000000--3-1-0-4-3-1---|
|--0-0--0-0---0-00-00-00---0000000--3-1-0-4-3-1---|
   * *  * *   * ** ** **   *******

  1:09 - 1:17
|--------------------------------------------------------------------|
|--------------------------------------------------------------------|
|---------------------------------------------------------[12]bend---|
|--0-0--0-0---0-00-00-00---0000000--3-1-0-4-3-1--0-0--0-0------------|
|--0-0--0-0---0-00-00-00---0000000--3-1-0-4-3-1--0-0--0-0------------|
|--0-0--0-0---0-00-00-00---0000000--3-1-0-4-3-1--0-0--0-0------------|
   * *  * *   * ** ** **   *******               * *  * *

  1:18 - 1:24
|-------------------------------------------------|
|-------------------------------------------------|
|-------------------------------------------------|
|--0-0--0-0---0-00-00-00---0000000--3-1-0-4-3-1---|
|--0-0--0-0---0-00-00-00---0000000--3-1-0-4-3-1---|
|--0-0--0-0---0-00-00-00---0000000--3-1-0-4-3-1---|
   * *  * *   * ** ** **   *******

  1:25 - 1:29
|------------------------------------|
|------------------------------------|
|------------------------------------|
|--0-0--0-0---0-00-00-00---0000000---|
|--0-0--0-0---0-00-00-00---0000000---|
|--0-0--0-0---0-00-00-00---0000000---|
   * *  * *   * ** ** **   *******

  1:31 - 1:56
|---------------------------------------------------------------|
|---------------------------------------------------------------|
|---------------------------------------------------------------| x6
|-------------------------------------9-12--------8-11----------|
|------9-6-9-----8-6-8-----3h5-----12----------11---------------|
|--0-0-------0-0-------0-0-----0-0---------0-0----------10h12---|
   * *       * *       * *     * *         * *

 1:57 - 1:58
|--------|
|--------|
|--------|
|--0-0---|
|--0-0---|
|--0-0---|
   * *

  1:59 - 2:07
|---------------------------------------------------------------|
|---------------------------------------------------------------|
|---------------------------------------------------------------| x2
|-------------------------------------9-12--------8-11----------|
|------9-6-9-----8-6-8-----3h5-----12----------11---------------|
|--0-0-------0-0-------0-0-----0-0---------0-0----------10h12---|
   * *       * *       * *     * *         * *

AND  THEN THERE'S THE SOLO THAT I COULD'T FIGURE OUT YET BUT IT'S COMING SOON!!! BUT THE 
PART IS THE RHYTHM TO THE SWEEPING SOLO!


  2:12 - 2:24
|------------------------------------------------|
|------------------------------------------------|
|------------------------------------------------|
|--0-------------6----------0-------------6--6---|
|--0-------------6----------0-------------6--6---|
|--0-------------6---/18----0-------------6--6---|


  2:25 - 2:32
|---------------------------------------------------|
|---------------------------------------------------|
|---------------------------------------------------|
|--------------------------------------10-9---------|
|-----------"12(x6)-"11(x12)-----11------------11---|
|--"12(x32)-------------------12----12------12------|
                              *     *       *

  2:33 - 2:40
|-------------------------------------------------------------------|
|-------------------------------------------------------------------|
|----------7---------------------[7]---------7---------7-6--10--6---|
|--0-3-2-0-7-0-3-2-0-8-7-0-3-2-0-----0-3-2-0-7-0-3-2-0-7-6--10--6---|
|--0-3-2-0---0-3-2-0-8-7-0-3-2-0-----0-3-2-0---0-3-2-0--------------|
|--0-3-2-0---0-3-2-0-8-7-0-3-2-0-----0-3-2-0---0-3-2-0-----0---0----|
   * * * *   * * * *     *     *     * * * *   * * * *     *   *


  2:41 - 2:45
|--------------------------------------------------------|
|--------------------------------------------------------|
|----------7---------------------[7]---------7-----------|
|--0-3-2-0-7-0-3-2-0-8-7-0-3-2-0-----0-3-2-0-7-0-0-0-0---|
|--0-3-2-0---0-3-2-0-8-7-0-3-2-0-----0-3-2-0---0-0-0-0---|
|--0-3-2-0---0-3-2-0-8-7-0-3-2-0-----0-3-2-0---0-0-0-0---|
   * * * *   * * * *     *     *     * * * *   * * * *

  2:46 - 2:48
|-------------------------------------------------------------------------|
|--------------------10h13p10h13p10h13--9h12p9h12p9h12--------------------|
|--11h14p11h14p11h14-----------------------------------10h13p10h13p10h13--|
|-------------------------------------------------------------------------|
|-------------------------------------------------------------------------|
|-------------------------------------------------------------------------|


   2:49 - 2:55
|---------------------------------------------------------|
|---------------------------------------------------------|
|--------------------------------------------------[12]---|
|--0-3-2-0---0-3-2-0-8-0-0---0-3-2-0---0-3-2-0-8-0--------|
|--0-3-2-0---0-3-2-0-8-0-0---0-3-2-0---0-3-2-0-8-0--------|
|--0-3-2-0---0-3-2-0-8-0-0---0-3-2-0---0-3-2-0-8-0--------|
   * * * *   * * * *   * *   * * * *   * * * *   *

   2:56 - 3:01
|------------------------------------------------|
|------------------------------------------------|
|------------------------------------------------|
|--0-3-2-0---0-3-2-0-8-0-0---0-3-2-0---0-3-2-0---|
|--0-3-2-0---0-3-2-0-8-0-0---0-3-2-0---0-3-2-0---|
|--0-3-2-0---0-3-2-0-8-0-0---0-3-2-0---0-3-2-0---|
   * * * *   * * * *   * *   * * * *   * * * *

  3:02 - 3:03
|---------------------------------------------------|
|---------------------------------------------------|
|------------------------------------------8h11p8---|
|------------------------------7h107p7--------------|
|-----6--9----5h8p5--4h7p4--------------------------|
|--0-------0---------------0-0---------0-0----------|
   *       *               * *         * *

   3:04 - 3:06
|-----------------------------------------|
|-----------------------------------------|
|--[7]--[6]-6-9-----------------8-10-11---|
|-----------------------7-9-10------------|
|---------------7-9-10--------------------|
|-----0-----------------------------------|
      *

   3:07 - 3:14
|-----------------------------------------------------------|
|-----------------------------------------------------------|
|-----------------------------------------------------------| x2
|--------------------3----------------------7-----6---------|
|----5h8-4-----5-----------6------5h8-4-----------------8---|
|--0-------0-0---0-0---0-0----0-0-------0-0---0-0---0-0-----|
   *       * *   * *   * *    * *       * *   * *   * *

   3:15 - 3:23
|----------------------------------------------------------------|
|----------------------------------------------------------------|
|----------------------------------------------------------------| x2
|----------------------3-----------------------------------------|
|------5h8-4-----5-----------6------5h8-4-----6h9---7h10---5h8---|
|--0-0-------0-0---0-0---0-0----0-0-------0-0-----0------0-------|
   * *       * *   * *   * *    * *       * *     *      *

   3:24 - 3:33
|---------------------------------------|
|---------------------------------------|
|---------------------------------------|
|--0-----------0------------------------|
|--0-----------0------------------------|
|--0-----------0----------3-1-0-4-3-1---|


  3:34 - 3:37
|--------------------------------------------------------|
|--------------------------------------------------------|
|--------------------------------------------------------|
|--0---------------------------------------3-1-0-4-3-1---|
|--0-----5h8---4-----5h8---11-----5h8------3-1-0-4-3-1---|
|--0-0-0-----0---0-0-----0----0-0-----0-0--3-1-0-4-3-1---|
     * *     *   * *     *    * *     * *

   3:38 - 3:57
|--------------------------------------------------------------------|
|--------------------------------------------------------------------|
|-----------------------------------------8-7-5----------------------|
|--0--------------------------------------------8-7-5----------------|
|--0-----5h8---4-----5h8---11-----5h8-----------------8-7-5--6-5-3---|
|--0-0-0-----0---0-0-----0----0-0-----0-0----------------------------|
     * *     *   * *     *    * *     * *                           /
                                                                   /
|---------------------------------------------------------------------- \        /
|---------------------------------------------------------------------- \       /
|--------------------------------------------------------|      / both- \ x2
|--0---------------------------------------3-1-0-4-3-1----------------- \     /
|--0-----5h8---4-----5h8---11-----5h8------3-1-0-4-3-1----------------- \    /
|--0-0-0-----0---0-0-----0----0-0-----0-0--3-1-0-4-3-1---| ------------ \
     * *     *   * *     *    * *     * *

  4:00 - 4:14
|---------------------------------------------------------|
|---------------------------------------------------------|
|--------------------------------------------------[12]---| x2
|--0-3-2-0---0-3-2-0-8-0-0---0-3-2-0---0-3-2-0-8-0--------|
|--0-3-2-0---0-3-2-0-8-0-0---0-3-2-0---0-3-2-0-8-0--------|
|--0-3-2-0---0-3-2-0-8-0-0---0-3-2-0---0-3-2-0-8-0--------|
   * * * *   * * * *   * *   * * * *   * * * *   *

  4:15 - 4:16
|------------|
|------------|
|------------|
|--0-3-2-0---|
|--0-3-2-0---|
|--0-3-2-0---|
   * * * *

     End =]
ya thats it so i hope u like it, i worked on it for a while and no one else has put it 
so ya here it is! enjoy
- jonathan


2..tell slater not to wash his dick.. 

not tabbed yet


3.. For Stevie Wonder's Eyes Only..


Tabbed By: Mark Webster

Tuning: Drop B

Its only guitar 1 but guitar 2 coming soon... its pretty much the same anyways.



--------------------------------------------------|
--------------------------------------------------|
--------------------------------------------------|
--------------------------------------------------|
-------------------------------8-8-8-8--7-7-7-7---|
-7-7--8-8--4-4--5-5--7-7--8-8---------------------|
 * *  * *  * *  * *  * *  * *  * * * *  * * * *

-----------------|--------------------------------|
-----------------|--------------------------------|
-----------------|x2]-----------------------------|
-----------------|------------5-7-8---------------|
-5-5--8p5--7p4---|------5-7-8---------------------|
-----------------|--------------------------------|
 * *

--------------------------------------------------|
--------------------------------------------------|
---------------------------------------7-8-10-----|
--------------------------5-7-8-7-8-10------------|
-5-5--8p5--7p4------5-7-8-------------------------|
----------------0-0-------------------------------|
 * *            * *

-----------------|--------------------------------|
-----------------|--------------------------------|
-----------------|x2]-----------------------------|
-----------------|------------5-7-8---------------|
-5-5--8p5--7p4---|------5-7-8---------------------|
-----------------|--------------------------------|
 * *

--------------------------------------------------|
--------------------------------------------------|
---------------------------------------7-8-10-----|
--------------------------5-7-8-7-8-10------------|
-5-5--8p5--7p4------5-7-8-------------------------|
----------------0-0-------------------------------|
 * *            * *


--------------------------------------------------|
--------------------------------------------------|
--------------------------------------------------|
--------------------------------------------------|
-5-------4-5---8---7----------4-------------------|
---0-0-0-----0---0---0-0-0--0---0-0-0--0----------|
   * * *     *   *   * * *  *   * * *  *


--------------------------------------------------|
--------------------------------------------------|
--------------------------------------------------|
--------------------------------------------------|
-------------------------------8-8-8-8--7-7-7-7---|
-7-7--8-8--4-4--5-5--7-7--8-8---------------------|
 * *  * *  * *  * *  * *  * *  * * * *  * * * *



--------------------------------------------------|
--------------------------------------------------|
--------------------------------------------------|
--------------------------------------------------|
-5-------4-5---8---7----------4-------------------|
---0-0-0-----0---0---0-0-0--0---0-0-0--0----------|
   * * *     *   *   * * *  *   * * *  *


--------------------------------------------------|
--------------------------------------------------|
--------------------------------------------------|
--------------------------------------------------|
-------------------------------8-8-8-8--7-7-7-7---|
-7-7--8-8--4-4--5-5--7-7--8-8---------------------|
 * *  * *  * *  * *  * *  * *  * * * *  * * * *


-------------------------------------------------------------|
-------------------------------------------------------------|
--------------------------------------7----------------------|
-5---0------------------7---8-7------------------------------|
---8----------------------8-----5-5-8------------------------|
--------0--0-0-0--0-0-0-----------------0-0--0-0-0--0-0-0----|
        *  * * *  * * *                 * *  * * *  * * *

-------------------------------------------------|
-------------------------------------------------|
-------------7-8-7-------------------------------|
-------5-7-8-------8-7-5-------------------------|
-5-7-8-------------------8-5---------------------|
-----------------------------0--0-0-0--0-0-0-----|
                             *  * * *  * * *

--------------------------------------------------|
--------------------------------------------------|
---------------7----------------------------------|
-7---8-7-----------------------------7-8-7-<5*>---|
---8-----5-5-8---------------------5--------------|
-----------------0-0--0-0-0--0-0-0----------------|
                 * *  * * *  * * *


-------------------------------------------------------------|
-------------------------------------------------------------|
--------------------------------------7----------------------|
-5---0------------------7---8-7------------------------------|
---8----------------------8-----5-5-8------------------------|
--------0--0-0-0--0-0-0-----------------0-0--0-0-0--0-0-0----|
        *  * * *  * * *                 * *  * * *  * * *

-------------------------------------------------|
-------------------------------------------------|
-------------7-8-7-------------------------------|
-------5-7-8-------8-7-5-------------------------|
-5-7-8-------------------8-5---------------------|
-----------------------------0--0-0-0--0-0-0-----|
                             *  * * *  * * *

--------------------------------------------------|
--------------------------------------------------|
---------------7----------------------------------|
-7---8-7-----------------------------7-8-7-<5*>---|
---8-----5-5-8---------------------5--------------|
-----------------0-0--0-0-0--0-0-0----------------|
                 * *  * * *  * * *


--------------------------------------------------|
--------------------------------------------------|
--------------------<7*>--------------------------|
---------7-8-7-<7*>-------------------------------|
-----7--------------------------------------------|
-0-0---0------------------------------------------|
 * *   *

--------------------------------------------------|
--------------------------------------------------|
------------------------------7-<5*>--------------|
---------7-8-7-<7*>-------------------------------|
-----7------------------5-4-5---------------------|\
-0-0---0------------0-0---------------------------| \
 * *   *            * *                              \
                                                      
                                                     /
--------------------------------------------------| /
--------------------------------------------------|/
----------------------------------------7---------|
---------7-8-7-<7*>-----------------4-7-----------|
-----7------------------5-4-5-4-5-7---------------|
-0-0---0------------0-0---------------------------|
 * *   *            * * * * * * * *

--------------------------------------------------|
--------------------------------------------------|
--------------------------------------------------|
-0-0--0-0--0--0-0--0-0--0-0-0-0-0-0---------------|
-0-0--0-0--0--0-0--0-0--0-0-0-0-0-0---------------|
-0-0--0-0--0--0-0--0-0--0-0-0-0-0-0---------------|
 * *  * *  *  * *  * *  * * * * * *

------|--------------------------------------------|
------|--------------------------------------------|
-10-9-|-------10-9------14-12-10-12----------------|
--x-x-|-------x--x-------x--x-x---x------------|
--8-7-|-------8--7------12-10-8--10----------------|
------|-0-0-0-----0-0-0----------------------------|
        * * *     * * *

---------------------|-----------------------------|
---------------------|-----------------------------|
---------------------|-----------------------------|
-----------------|-----------------------------|
---------------------|-12-10-8-10-8-7--------------|
-10-8-8-8-8-8-8------|-----------------------------|


-------------------------------------------------------------|
-------------------------------------------------------------|
----------------------------------10-9-7----7-9----7-9-10----|
-----------------------------------------10-----10-----------|
-------------------------------------------------------------|
-8-7-7-7-7-7-7-7-10-7-7-7-7-7-7-7----------------------------|


--------------------------------------------|
--------------------------------------------|
------10--9------14-12-10-12----------------|
-------x--x-------x--x--x--x------------|
-------8--7------12-10--8-10----------------|
-0-0-0-----0-0-0----------------------------|
 * * *     * * *


-17-15----17--------------------------------------------------------------|
-------18----18-17-18-17-15-17-15----15-----------------------------------|
----------------------------------17----17-16-17-16----16-----------------|
----------------------------------------------------19----19-17-19-17-16--|
--------------------------------------------------------------------------|
--------------------------------------------------------------------------|


-15-----------------------------------------------------------------------|
----17-14-17-14----14-----------------------------------------------------|
----------------15----15----15--------------------------------------------|
-------------------------17----17-14-17-14----14--------------------------|
-------------------------------------------16----16-13-16-13----13--------|
-------------------------------------------------------------17----17-14--|

-------------------------------------------------------------|
-------------------------------------------------------------|
--------------------------------------7----------------------|
-5---0------------------7---8-7------------------------------|
---8----------------------8-----5-5-8------------------------|\
--------0--0-0-0--0-0-0-----------------0-0--0-0-0--0-0-0----| \                   
        *  * * *  * * *                 * *  * * *  * * *       \
                                                                 \
-------------------------------------------------|                
-------------------------------------------------|               /
-------------7-8-7-------------------------------|       _______/
-------5-7-8-------8-7-5-------------------------|      /
-5-7-8-------------------8-5---------------------|     /
-----------------------------0--0-0-0--0-0-0-----|    /
                             *  * * *  * * *         /
                                                    /
--------------------------------------------------|/
--------------------------------------------------|
---------------7----------------------------------|
-7---8-7-----------------------------7-8-7-<5*>---|
---8-----5-5-8---------------------5--------------|
-----------------0-0--0-0-0--0-0-0----------------|
                 * *  * * *  * * *

--------------------------------------------------|
--------------------------------------------------|
--------------------------------------------------|
------0~------------------------------------------|
------0~------------------------------------------|
------0~------------------------------------------|


----------------------------------------------------|
----------------------------------------------------|
----------------------------------------------------|\______
----------------------------------------------------|       \
--8--5--8--5--8--5--7--|        \
----------------------------------------------------|         \
                                                              
                                                             /
-----------------------------------------------------------|/
-----------------------------------------------------------|
-----------------------------------------------------------|
-----------------------------------------------------------|
-4--7--4--7--4------------------------|
-------------------------------------8--5--7--|


----------------------------------------------------|
----------------------------------------------------|
----------------------------------------------------|\
----------------------------------------------------| \      
--8--5--8--5--8--5--7--|  \      
----------------------------------------------------|   \ 
                                                         
----------------------------------------------------|   /
----------------------------------------------------|  /
----------------------------------------------------| /
-------------------------------------8~--5~--7~-----|/
-4--7--4--7--4--8~--5~--7~-----|
-------------------------------------8~--5~--7~-----|


-------------------------------------------------------------------------------|
-------------------------------------------------------------------------------|
-------------------------------------------------------------------------------|
-0-0-0-0-----------0-0-0-0---------------------0-0-0-0------------4-4-4-1-1-1--|
-0-0-0-0-5h8p--0-0-0-0-5h8p--6h9p--0-0-0-0------------4-4-4-1-1-1--|
-0-0-0-0-----------0-0-0-0---------------------0-0-0-0-8h11p--4-4-4-1-1-1--|
 * * * *           * * * *                     * * * *           

--------------------------------------------------|
--------------------------------------------------|
------------------------------7-<5*>--------------|
---------7-8-7-<7*>-------------------------------|
-----7------------------5-4-5---------------------|\
-0-0---0------------0-0---------------------------| \
 * *   *            * *                              \
                                                      
                                                     /
--------------------------------------------------| /
--------------------------------------------------|/
----------------------------------------7---------|
---------7-8-7-<7*>-----------------4-7-----------|
-----7------------------5-4-5-4-5-7---------------|
-0-0---0------------0-0---------------------------|
 * *   *            * * * * * * * *



4.. A lot like vegas..

(there is only a solo)


D ||--------------------|--12--13--12--------|--12h-13h-12----------------|
B ||--15~---------------|--------------13~---|--------------10~---12--12--|
F#||--------------------|--------------------|--------------------12--12--|
B ||--------------------|--------------------|----------------------------|
F#||--------------------|--------------------|----------------------------|
B ||--------------------|--------------------|----------------------------|


                                                             
-----------------------|--12--13--12--------12--13--12------|
--12b------------------|--------------13~---------------10--|
--12b-------10----7----|------------------------------------|
-----------------------|------------------------------------|
-----------------------|------------------------------------|
-----------------------|------------------------------------|


                                                       
--------------------------|---------------------------|
--10~---12--12--12b-------|---------------------------|
--------12--12--12b-------|--10----7--------10--------|
--------------------------|---------------------------|
--------------------------|---------------------------|
--------------------------|---------------------------|


                                                                             
-------------------------|------------------------|-------------------------|
-------------------------|------------------------|-------------------------|
--7----10/---12----12b---|--10----7----10----7----|--10----7----12----12----|
-------------------------|------------------------|-------------------------|
-------------------------|------------------------|-------------------------|
-------------------------|------------------------|-------------------------|


                               
-----------------------------||
-----------------------------||
--12b---10--7----------------||
-----------------------------||
-----------------------------||
-----------------------------||



5..black and blue..

not tabed yet


6..slow dance..

Transcribed by Jonathan Casper (confinedforever)

Gtr 1 - Tuning Drop B - (B F# B E G# C#)

/ - SLIDE UP TO          h - HAMMER ON
\ - SLIDE DOWN TO        p - PULL OF
~ - VIBRATO              * - PALM MUTE
" - TREMOLO PICKING     [] - ARTIFICAL HARMONIC



 0:01 - 0:12       
 GTR 1   
|-------------------|
|-------------------|
|--10-/14--12-------| 
|--x--/x---x--------|
|--8--/12--10-------|
|--------------11---|\
                      \
 GTR 2                 
|------------------|   /
|------------------|  /
|--7--/10---9------| / 
|--x--/x----x------|
|--5--/8----7------|
|--------------8---| 

 0:13 - 0:24
 GTR 1
|----------------------------------------------------------------------|
|----------------------------------------------------------------------|
|----------------------------------------------------------------------| 
|---------------------------------------------------15-15-----11--11---|
|--8h12(x10)--12h15(x5)--10h13(x5)------------------x--x------x---x----|
|-----------------------------------11h14(x10)---0--12-12--0--8---8----|
                                                 *         *
                                                                both x2
 GTR 2
|----------------------------------------------------------------------|
|----------------------------------------------------------------------|
|----------------------------------------------------------------------| 
|----------------------------------------------------4-4-------1---1---|
|--5h8(x10)---8h12(x5)----7h10(x5)-------------------4-4-------1---1---|
|------------------------------------8h11(x10)---0---4-4----0--1---1---| 
                                                 *          *
 0:25 - 0:26
 GTR 1
|-------------------|
|-------------------|
|-------------------| 
|-------------------|
|-------------------|
|--0--(dive bomb)---| 

 0:27 - 0:39
 GTR 1
|------------------------------------------------------|
|------------------------------------------------------|
|------------------------------------------------------|
|------------------------------------------------------|
|---------------12-----11---8---8---8------------------|
|--0-0-0-12-0-0----0-0----0---0---0---0-0-0-11-12-14---|
   * * *    * *    * *    *   *   *   * * *

 GTR 2
|-----------------------------------------------------|
|-----------------------------------------------------|
|-----------------------------------------------------|
|--0-0-0----------------------------------------------|
|--0-0-0----------------------------------------------|
|--0-0-0------------------0-----------0-0-0-0-0-0-0---|
   * * *                  *           * * * * * * *   
                                                        \
                                                         both sections x2
 GTR 1                                                  /   
|------------------------------------------------|
|------------------------------------------------|
|------------------------------------------------|
|----------------------------15--15-----11--11---|
|---------------12-----11----x---x------x---x----|
|--0-0-0-12-0-0----0-0----0--12--12--0--8---8----|
   * * *    * *    * *    *          *

  GTR 2
|------------------------------------------------|
|------------------------------------------------|
|------------------------------------------------|
|-----------------------------4--4-------1---1---|
|-----------------------------4--4-------1---1---|
|--0-0-0------------------0---4--4---0---1---1---|
   * * *                  *          *

 0:40 - 0:52
 GTR 1
|-----------------------------------------------------------------------|
|-----------------------------------------------------------------------|
|----------------------------------------------------------------[10]---|
|--0-0-0-0-----0---------0-0-0-0-0-0-0-0----------15--15-----11---------|
|--0-0-0-0-----0---------0-0-0-0-0-0-0-0----------x---x------x----------|
|--0-0-0-0-----0---------0-0-0-0-0-0-0-0-------0--12--12--0--8----------|
   * * * *     *         * * * * * * * *       *          *
                                                                both x2
 GTR 2
|-----------------------------------------------------------------------|
|-----------------------------------------------------------------------|
|----------------------------------------------------------------[6]----|
|--0-0-0-0-----0---------0-0-0-0-0-0-0-0----------4---4-------1---------|
|--0-0-0-0-----0---------0-0-0-0-0-0-0-0----------4---4-------1---------|
|--0-0-0-0-----0---------0-0-0-0-0-0-0-0-------0--4---4---0---1---------|
   * * * *     *         * * * * * * * *       *          *

 0:53 - 0:56
 GTR 1
|----------------------------|
|----------------------------|
|----------------------------| 
|-0-0-0-0--------------------|
|-0-0-0-0--------------------|
|-0-0-0-0----0-(dive bomb)---| 
  * * * *

 0:57 - 1:16
 GTR 1
|-------------------------------------------------------------------------|
|-------------------------------------------------------------------------|
|------------------------------------------------------------------[10]---| 
|---------------------------------------------------15--15------11--------|
|--5h8(x10)---8h12(x5)----7h10(x5)------------------x---x-------x---------|
|------------------------------------8h11(x10)---0--12--12---0--8---------| 
                                                 *           *
                                                                both x2
 GTR 2                
|------------------------------------------------------------------------|
|------------------------------------------------------------------------|
|------------------------------------------------------------------[6]---|
|--0-0-0-0-----0---------0-0-0-0-0-0-0-0-------------4--4--------1-------|
|--0-0-0-0-----0---------0-0-0-0-0-0-0-0-------------4--4--------1-------|
|--0-0-0-0-----0---------0-0-0-0-0-0-0-0---------0---4--4----0---1-------|
   * * * *     *         * * * * * * * *         *           *


    End =]

hope u like it!!!

- jonathan


7.. liquor and love lost..

not tabed yet


8..MEDUSA..
Tabbed By: Mark Webster

Tuning: Drop B
(B F# B E G# C#)

/ - SLIDE UP TO          h - HAMMER ON
\ - SLIDE DOWN TO        p - PULL OF
~ - VIBRATO              * - PALM MUTE
" - TREMOLO PICKING     <> - ARTIFICAL HARMONIC




 GUITAR 1:

 0:00 - 0:28
--------------------------------------|
--------------------------------------|\
-----------2--------------------------| \
-------------5-3-2-------------3p1----|  \
--0-0--0-0---------0-0-3h5-0-0--------|   \
--0-0--0-0---------0-0-----0-0--------|    \
  * *  * *         * *     * *              \
                                             \
                                              \
--------------------------------------|        \
--------------------------------------|         \
-----------2--------------------------|          \ 
-------------5-3-2--------------------|           \
--0-0--0-0-------------5-7------8-10--|            \
--0-0--0-0---------5-7-----7-10-------|             \
  * *  * *                                                          
                                                    /
                                                   /
--------------------------------------|           /
--------------------------------------|          /
-----------2--------------------------|         /
-------------5-3-2-------------3p1----|        /
--0-0--0-0---------0-0-3h5-0-0--------|       /
--0-0--0-0---------0-0-----0-0--------|      /
  * *  * *         * *     * *              /
                                           /
                                          / 
--------------------------------------|  /
--------------------------------------| /          
-----------2--------------------------|/          
-------------5-3-2-------7-----7-8----|         
--0-0--0-0---------5-7-8---7-8--------|
--0-0--0-0----------------------------|
  * *  * *    

 0:28 - 0:39
------------------------------------------------------------------|
------------------------------------------------------------------|
-----------------------------------------------7-8-------10-11----|
---------------------------------------------8--------11----------|
--0-0-6-3-5----------------------6-3-5-----9-------11-------------|
--0-0-------0-0-00-0-0-00-0-0-00-------0-0------------------------|
  * *       * * ** * * ** * * **       * *

 0:39 - 0:49
------------------------------------------------------------------------------15-|
---------------------------------------------------------------------------15----|
------------------------------------------------------------------------15-------|
-----------------------------17-16--------------17-16-------------14-17----------|
--0-0--0-0-18-15-17-0-0--0-0-------18--0-0--0-0-------18-15-13-16----------------|
--0-0--0-0----------0-0--0-0-----------0-0--0-0----------------------------------|
  * *  * *          * *  * *           * *  * *

 0:49 - 0:55
------------------------------------------------------------------------|
------------------------------------------------------------------------|
-----------7/6----------------------------7/6-------<12*>-------<12*>---|
-----------x/x----------------------------x/x---------------------------|
--0-0--0-0-5/4-------5h6-----3h5-0-0--0-0-5/4-44-33-------44-22---------|
--0-0--0-0-----0-0-0-----0-0-----0-0--0-0-----44-33-------44-22---------|
  * *  * *     * * *     * *     * *  * *     ** **       ** **

 0:55 - 0:59
--------------------------------------------------|
--------------------------------------------------|
-----------7/6----------------------------7/6-----|
-----------x/x----------------------------x/x-----|
--0-0--0-0-5/4-------5h6-----3h5-0-0--0-0-5/4-----|
--0-0--0-0-----0-0-0-----0-0-----0-0--0-0---------|
  * *  * *     * * *     * *     * *  * *

 0:59 - 1:06 
---------------------------------------------------------------------------------------------------|
---------------------------------------------------------------------------------------------------|
-------<12*>-------<12*>-------<14*>-------<14*>-------<13*>-------<13*>-------<13*>-------<13*>---|
---------------------------------------------------------------------------------------------------|
-44-33-------44-22-------44-33-------44-22-------33-22-------22-11-------33-22-------22-11---------|
-44-33-------44-22-------44-33-------44-22-------33-22-------22-11-------33-22-------22-11---------|
 ** **       ** **       ** **       ** **       ** **       ** **       ** **       ** **

 1:06 - 1:08
-----------------|
-----------------|
-----------------|
-0-4-3-1-0-0-0---|
-0-4-3-1-0-0-0---|
-0-4-3-1-0-0-0---|
 * * * * * * *

 1:08 - 1:36
------------------------------------------------------------------------------------------|
------------------------------------------------------------------------------------------|
------------------------------------------------------------------------------------------|-\ 
-0-4-3-1-0-0-0--0-1-1--0-4-3-1-0-0-0--0-0-0--0-0-0--0-4-3-1-0-0-0--0-1-1--0-4-3-1-0-0-0---|  \
-0-4-3-1-0-0-0--0-1-1--0-4-3-1-0-0-0--0-0-0--0-0-0--0-4-3-1-0-0-0--0-1-1--0-4-3-1-0-0-0---|   \
-0-4-3-1-0-0-0--0-1-1--0-4-3-1-0-0-0--0-0-0--0-0-0--0-4-3-1-0-0-0--0-1-1--0-4-3-1-0-0-0---|    \
 * * * * * * *  * * *  * * * * * * *  * * *  * * *  * * * * * * *  * * *  * * * * * * *        
                                                                                               /
                                                                                              /
-----------------------|                                                                     /
-----------------------|                                                                    /
-6h9p--5h8p----|___________________________________________________________________/
-----------------------|
-----------------------|
-----------------------|


 1:36 - 1:49
------------------------|
------------------------|
------------------------|
-0-4-3-1-0-0-0--0-1-1---|
-0-4-3-1-0-0-0--0-1-1---|
-0-4-3-1-0-0-0--0-1-1---|
 * * * * * * *  * * *

 1:49 - 2:02
--------------------------------|
--------------------------------|
-6~-6-7-4~-6~-6\12-11-4~-<5*>---|
-x--x-x-x--x--x\x---x-x---------|
-4~-4-5-2~-4~-4\10--9-2~--------|
--------------------------------|


 2:02 - 2:14
------------------------------------------------------------------------------------------|
------------------------------------------------------------------------------------------|
------------------------------------------------------------------------------------------|
-0-4-3-1-0-0-0--0-1-1--0-4-3-1-0-0-0--0-0-0--0-0-0--0-4-3-1-0-0-0--0-1-1--0-4-3-1-0-0-0---|
-0-4-3-1-0-0-0--0-1-1--0-4-3-1-0-0-0--0-0-0--0-0-0--0-4-3-1-0-0-0--0-1-1--0-4-3-1-0-0-0---|
-0-4-3-1-0-0-0--0-1-1--0-4-3-1-0-0-0--0-0-0--0-0-0--0-4-3-1-0-0-0--0-1-1--0-4-3-1-0-0-0---|
 * * * * * * *  * * *  * * * * * * *  * * *  * * *  * * * * * * *  * * *  * * * * * * *

 2:14 - 2:16
----------------------|
----------------------|
-6h9p--5h8p---|
----------------------|
----------------------|
----------------------|


 2:13 - 2:20
--17-13-------17-13-------17-13-------------|
--------15----------15----------15----------|
-----------14----------14----------14-------|
--------------------------------------10~---|
--------------------------------------10~---|
--------------------------------------10~---|


 2:20 - 2:25
--------------------------------------|
--------------------------------------|
-----------2--------------------------| 
-------------5-3-2-------------3p1----|  
--0-0--0-0---------0-0-3h5-0-0--------|   
--0-0--0-0---------0-0-----0-0--------|    
  * *  * *         * *     * *              
                                             
 2:25 - 2:28                                            
--------------------------------------|        
--------------------------------------|         
-----------2--------------------------|           
-------------5-3-2--------------------|           
--0-0--0-0-------------5-7------8-10--|            
--0-0--0-0---------5-7-----7-10-------|             
  * *  * *                                          
                                                    
 2:28 - 2:31                                                 
--------------------------------------|           
--------------------------------------|          
-----------2--------------------------|         
-------------5-3-2-------------3p1----|        
--0-0--0-0---------0-0-3h5-0-0--------|       
--0-0--0-0---------0-0-----0-0--------|      
  * *  * *         * *     * *              
                                           
 2:31 - 2:33                                        
--------------------------------------|  
--------------------------------------|          
-----------2--------------------------|       
-------------5-3-2-------7-----7-8----|         
--0-0--0-0---------5-7-8---7-8--------|
--0-0--0-0----------------------------|
  * *  * *    

 2:33 - 2:42
-------------------------------------------------------------|
-------------------------------------------------------------|
-------------------------------------------------------------|
-------------------------------------------7h8p7-------------|
-------------"7-"6---------------5-----------5-7-8---|
-66-77-66-44---------------00-66-88-55-0---------0-0---------|
 ** ** ** **               ** ** ** ** *         * *

 2:42 - 2:52
-----------------------------------------|
-----------------------------------------|
-----------------------------------------|
-----------------------------------------|
-------------------------"7-"6---|
-"0-"8-"5-----------------|


 2:52 - 3:14
----------------------------------------------------------------------------------|
----------------------------------------------------------------------------------|
----------------------------------------------------------------------------------|
----------------------------------------------------------------------------------|
-----7---7-----7---7-----9---9-----9---9-----7---7-----7---7-----6---6-----6---6--|
-000---0---000---0---000---0---000---0---000---0---000---0---000---0---000---0----|
 ***   *   ***   *   ***   *   ***   *   ***   *   ***   *   ***   *   ***   *

 3:14 - 3:26
----------------------|
----------------------|
----------------------|
----------------------|
-00-00-0000000000-----|
-00-00-0000000000-----|
 ** ** **********

 3:26 - 3:29
---------------------------------------------12---|
------------------------------------------15------|
-----14-----------------------12-14----12---------|
--------15-12-----------12-15-------15------------|
-0-0----------12-0-0-12---------------------------|
-0-0-------------0-0------------------------------|
 * *             * * 

 3:29 - 3:31
---------------------17----------------------------------17---------------------|
------------------------18----------------------------18----18------------------|
-----14--------------------19----------------------19----------19---------------|
--------15-12-----------------19----------------19----------------19------------|
-0-0----------12-0-0-------------20-17----17-20----------------------20-17------|
-0-0-------------0-0-------------------19----------------------------------19---|
 * *             * *

 3:31 - 3:34
---------------------------------------------12---|
------------------------------------------15------|
-----14-----------------------12-14----12---------|
--------15-12-----------12-15-------15------------|
-0-0----------12-0-0-12---------------------------|
-0-0-------------0-0------------------------------|
 * *             * * 

 3:34 - 3:38
---------------------------------------17----------------17-19------------|
------------------------------------18----18----------18-------18---------|
-----14--------------------------19----------19----19-------------19------|
--------15-12-----------------19----------------19-------------------20---|
-0-0----------12-0-0----17-20---------------------------------------------|
-0-0-------------0-0-19---------------------------------------------------|
 * *             * * 

 3:38 - 3:42
---------------------------------------------12---|
------------------------------------------15------|
-----14-----------------------12-14----12---------|
--------15-12-----------12-15-------15------------|
-0-0----------12-0-0-12---------------------------|
-0-0-------------0-0------------------------------|
 * *             * * 

 3:42 - 3:44
---------------------------------------17----------------17-19------------|
------------------------------------18----18----------18-------18---------|
-----14--------------------------19----------19----19-------------19------|
--------15-12-----------------19----------------19-------------------20---|
-0-0----------12-0-0----17-20---------------------------------------------|
-0-0-------------0-0-19---------------------------------------------------|
 * *             * * 

 3:44 - 3:59
-----------------------------------------|
-----------------------------------------|
----------------------------------3\6~---|
-0----------------4-6-7-3-4-6-0~--x\x----|
-0--0-0--0-0--0-0-4-6-7-3-4-6-0~--1\4~---|
-0--0-0--0-0--0-0-4-6-7-3-4-6-0~---------|
 *  * *  * *  * * * * * * * * 

 3:59 - 4:24
------------------------------------------------------------------|
------------------------------------------------------------------|
------------------------------------------------------------------|
------------------------------------------------------------------|
-------4-------3-------7-------6-------6-------4-------7-------3--|
-0-0-0---0-0-0---0-0-0---0-0-0---7-7-7---7-7-7---4-4-4---4-4-4----|
 * * *   * * *   * * *   * * *   * * *   * * *   * * *   * * *

 4:24 - 4:29
-----------|
-----------|
-----------|
-----------|
-0-0-0-0---|
-0-0-0-0---|
 * * * *

 4:29 - 4:36
-----------------------------|-------------------|
-----------------------------|-------------------|
-----------------------------|-----<11*>---------|
-----------------------------|-------<12*>---|
-----------------------------|-------------------|
-"0-"1-"0-"3-|-------------------|


 4:36 - 4:42
------------------------------------------------------------------------------------------------------|
------------------------------------------------------------------------------------------------------|
-------------------------------------------------------------------------------------------<10*>------|
------------------------------------------------------------------------------------------------<11*>-|
------------------------------------------------------------------------------------------------------|
-"0-"1-"0-"3-"0-"1-"4-"3-"0-"1-"3-"2-"0-----------|


 4:42 - 4:48
-----------------------------------------------------------------|
-----------------------------------------------------------------|
-----------------------------------------------------<11*>-------|
-------<12*>----------------------------------------------<12*>--|
-----------------------------------------------------------------|
-0-1-0-------0-1-4-3-"0-"1-"3-"2-0---------------|
 * * *       * * * *                             *

 4:48 - 4:52
-----------------------------------------------------------------------|
-----------------------------------------------------------------------|
-----------------------------------------------------------------------|
-------<12*>-----------------------------------------------------------|
-----------------------------------------------------------------------|
-0-1-0-------0-1-4-3-"0-"1-"3-"2-"0-"3-"2--|
 * * *       * * * * 

 4:52 - 5:06
---------------------------------------------------------------------------|
---------------------------------------------------------------------------|
-----------------------------------------------------<11*>-----<11*>-------|
-------<12*>----------------------------------------------<12*>-----<12*>~-|
---------------------------------------------------------------------------|
-0-1-0-------0-1-4-3-"0-"1-"3-"2-0-------------------------|
 * * *       * * * *                             *

 5:06 - 5:35
--------------------------------------------------------------------------------|
---------------------------------------<12*>------------------------------------|
------------------------------------------------------------6h9p-5h8p---|
--------------------------------------------------------------------------------|
-----------------"0---------------------------------------------------------|
-000-111-444-333--------"10-"13-----000-111-444-333---------------------|
 *** *** *** ***                            *** *** *** ***

 5:35 - 5:41
------------------------------------|
------------------------------------|
------------------------------------|
----------7-------------------------|
-0-0--0-0---10-8-7-0-0-0-0-0-0--0---|
-0-0--0-0----------0-0-0-0-0-0--0---|
 * *  * *          * * * * * *  *








 Guitar 2
 0:00 - 0:19
-----------------------------------|
-----------------------------------|\
----------5------------------------| \
------------8-7-5-------------7p5--|  \
-0-0--0-0---------0-0-7h8-0-0------|   \
-0-0--0-0---------0-0-----0-0------|    \
 * *  * *         * *     * *            \
                                          \
                                           \
-------------------------------------|      \ 
-------------------------------------|       \ 
----------5--------------------------|        \
------------8-7-5--------------------|         \
-0-0--0-0-------------5-7------8-10--|          \
-0-0--0-0---------5-7-----7-10-------|           \
 * *  * *                                         \
                                                  
                                                  /
-----------------------------------|             / 
-----------------------------------|            /
----------5------------------------|           /
------------8-7-5-------------7p5--|          /
-0-0--0-0---------0-0-7h8-0-0------|         /
-0-0--0-0---------0-0-----0-0------|        /
 * *  * *         * *     * *              /
                                          /
                                         /
-----------------------------------|    /
-----------------------------------|   /
----------5------------------------|  /
------------8-7-5-------7-----7-8--| /
-0-0--0-0---------5-7-8---7-8------|/
-0-0--0-0--------------------------|
 * *  * *         * * *   * *

 0:19 - 0:22
-------------------------------------------|
-------------------------------------------|
----------14-------------------------------|
-------------17-15-14---------------15p13--|
-0-0--0-0-------------0-0-16h17-0-0--------|
-0-0--0-0-------------0-0-------0-0--------|
 * *  * *             * *       * *

 0:22 - 0:24
-----------------------------------------|
-----------------------------------------|
----------14-----------------------------|
-------------17-15-14--------------------|
-0-0--0-0-----------------5-7------8-10--|
-0-0--0-0-------------5-7-----7-10-------|
 * *  * * 

 0:24 - 0:26
-------------------------------------------|
-------------------------------------------|
----------14-------------------------------|
-------------17-15-14---------------15p13--|
-0-0--0-0-------------0-0-16h17-0-0--------|
-0-0--0-0-------------0-0-------0-0--------|
 * *  * *             * *       * *

 0:26 - 0:28
---------------------------------------|
---------------------------------------|
----------14---------------------------|
-------------17-15-14-------7-----7-8--|
-0-0--0-0-------------5-7-8---7-8------|
-0-0--0-0------------------------------|
 * *  * *             * * *   * *

 0:28 - 0:39
------------------------------------------------------------------|
------------------------------------------------------------------|
-----------------------------------------------7-8-------10-11----|
---------------------------------------------8--------11----------|
--0-0-6-3-5----------------------6-3-5-----9-------11-------------|
--0-0-------0-0-00-0-0-00-0-0-00-------0-0------------------------|
  * *       * * ** * * ** * * **       * *

 0:39 - 0:49
------------------------------------------------------------------------------15-|
---------------------------------------------------------------------------15----|
------------------------------------------------------------------------15-------|
-----------------------------17-16--------------17-16-------------14-17----------|
--0-0--0-0-18-15-17-0-0--0-0-------18--0-0--0-0-------18-15-13-16----------------|
--0-0--0-0----------0-0--0-0-----------0-0--0-0----------------------------------|
  * *  * *          * *  * *           * *  * *

 0:49 - 0:55
------------------------------------------------------------------------|
------------------------------------------------------------------------|
-----------7/6----------------------------7/6-------<12*>-------<12*>---|
-----------x/x----------------------------x/x---------------------------|
--0-0--0-0-5/4-------5h6-----3h5-0-0--0-0-5/4-44-33-------44-22---------|
--0-0--0-0-----0-0-0-----0-0-----0-0--0-0-----44-33-------44-22---------|
  * *  * *     * * *     * *     * *  * *     ** **       ** **

 0:55 - 0:59
----------------------------------------------|
--------------------6h8-----5h6---------------|
----------7/6----------------------------7/6--|
----------x/x----------------------------x/x--|
-0-0--0-0-5/4-------------------0-0--0-0-5/4--|
-0-0--0-0-----0-0-0-----0-0-----0-0--0-0------|
 * *  * *     * * *     * *     * *  * *

 0:59 - 1:06 
---------------------------------------------------------------------------------------------------|
---------------------------------------------------------------------------------------------------|
-------<12*>-------<12*>-------<14*>-------<14*>-------<13*>-------<13*>-------<13*>-------<13*>---|
---------------------------------------------------------------------------------------------------|
-44-33-------44-22-------44-33-------44-22-------33-22-------22-11-------33-22-------22-11---------|
-44-33-------44-22-------44-33-------44-22-------33-22-------22-11-------33-22-------22-11---------|
 ** **       ** **       ** **       ** **       ** **       ** **       ** **       ** **

 1:06 - 1:08
----------------|
----------------|
----------------|
-0-4-3-1-0-0-0--|
-0-4-3-1-0-0-0--|
-0-4-3-1-0-0-0--|
 * * * * * * *

 1:08 - 1:36
--------------------------------------------------------------------------------------------|
--------------------------------------------------------------------------------------------|
--------------<12*>-----------------------------------------------<12*>---------------------|-\ 
-0-4-3-1-0-0-0-----1-1--0-4-3-1-0-0-0--0-0-0--0-0-0--0-4-3-1-0-0-0-----1-1--0-4-3-1-0-0-0---|  \
-0-4-3-1-0-0-0-----1-1--0-4-3-1-0-0-0--0-0-0--0-0-0--0-4-3-1-0-0-0-----1-1--0-4-3-1-0-0-0---|   \
-0-4-3-1-0-0-0-----1-1--0-4-3-1-0-0-0--0-0-0--0-0-0--0-4-3-1-0-0-0-----1-1--0-4-3-1-0-0-0---|    \
 * * * * * * *     * *  * * * * * * *  * * *  * * *  * * * * * * *     * *  * * * * * * *        
                                                                                                 /
                                                                                                /
-----------------------|                                                                       /
-----------------------|                                                                      /
-6h9p--5h8p----|_____________________________________________________________________/
-----------------------|
-----------------------|
-----------------------|


 1:36 - 1:46
----------------------------------|
----------------------------------|
-------------------------3---2-2--|
-0-4-3-1-0-1-3-0-1-4-3-1-x---x-x--|
-0-4-3-1-0-1-3-0-1-4-3-1-1---0-0--|
-0-4-3-1-0-1-3-0-1-4-3-1---0------|
 * * * * * * * * * * * *   *

 1:46 - 1:49
---------------------------|
---------------------------|
---------------------------|
-0-4-3-1-0-1-3-0-1-4-3-4\--|
-0-4-3-1-0-1-3-0-1-4-3-4\--|
-0-4-3-1-0-1-3-0-1-4-3-4\--|
 * * * * * * * * * * *

 1:49 - 1:58
-------------------------------------------------------------------------------|
-------------------------------------------------------------------------------|
----------------------------------------------------------------"3-"2--|
-------------------------------------------------------------------------------|
-------------------------------------------------------------------------------|
-"1-"4-"3-"0-"1-"3-"1-"4-"3----------------|


 1:58 - 2:01
---------------------------------------------------------------------|
---------------------------------------------------------------------|
---------------------------------------------------------------<12*>-|
---------------------------------------------------------------------|
---------------------------------------------------------------------|
-"1-"4-"3-"0-"1-"3-"1-"4-"3------|


 2:01 - 2:14
--------------------------------------------------------------------------------------------|
--------------------------------------------------------------------------------------------|
--------------<12*>-----------------------------------------------<12*>---------------------| 
-0-4-3-1-0-0-0-----1-1--0-4-3-1-0-0-0--0-0-0--0-0-0--0-4-3-1-0-0-0-----1-1--0-4-3-1-0-0-0---|  
-0-4-3-1-0-0-0-----1-1--0-4-3-1-0-0-0--0-0-0--0-0-0--0-4-3-1-0-0-0-----1-1--0-4-3-1-0-0-0---|   
-0-4-3-1-0-0-0-----1-1--0-4-3-1-0-0-0--0-0-0--0-0-0--0-4-3-1-0-0-0-----1-1--0-4-3-1-0-0-0---|    
 * * * * * * *     * *  * * * * * * *  * * *  * * *  * * * * * * *     * *  * * * * * * *       
                                                                                                 
 2:14 - 2:16
----------------------|
----------------------|
-6h9p--5h8p---|
----------------------|
----------------------|
----------------------|


 2:16 - 2:20
-----17-13-------17-13-------17-13--------|
-----------15----------15----------15-----|
--------------14----------14----------14--|
-0~---------------------------------------|
-0~---------------------------------------|
-0~---------------------------------------|


 2:20 - 2:24
-----------------------------------|
-----------------------------------|
----------5------------------------|
------------8-7-5-------------7p5--|
-0-0--0-0---------0-0-7h8-0-0------|
-0-0--0-0---------0-0-----0-0------|
 * *  * *         * *     * *

 2:24 - 2:28
-------------------------------------|
-------------------------------------|
----------5--------------------------|
------------8-7-5--------------------|
-0-0--0-0-------------5-7------8-10--|
-0-0--0-0---------5-7-----7-10-------|
 * *  * * 

 2:28 - 2:31
-----------------------------------|
-----------------------------------|
----------5------------------------|
------------8-7-5-------------7p5--|
-0-0--0-0---------0-0-7h8-0-0------|
-0-0--0-0---------0-0-----0-0------|
 * *  * *         * *     * *

 2:31 - 2:33
-----------------------------------|
-----------------------------------|
----------5------------------------|
------------8-7-5-------7-----7-8--|
-0-0--0-0---------5-7-8---7-8------|
-0-0--0-0--------------------------|
 * *  * *         * * *   * *

 2:33 - 2:44
-------------------------------------------------------------|
-------------"10-"8----------------------------------|
-------------------------------------------------------------|
--------------------------------------------7h8p7------------|
------------------------------------------5-----------5-7-8--|
-00-66-77-55----------------00-66-77-55-0---------0-0--------|
 ** ** ** **                ** ** ** ** *         * *

 Solo:
 2:44 - 3:14
-------------------------------------------------|
-----15-17-16b-17-15----------17-------20--------|
---------------------17-17-19----19-17----17-----|
---------------------------------------------17--|
-------------------------------------------------|
-\12---------------------------------------------|



-----------------------------------------------------------------------------|
-18-16-15-16-15----15--------------------------------------------------------|
----------------17----17-15-17-15-14h15p14-17-15-14-15-14----14--------------|
----------------------------------------------------------17----17-15-17-15--|
-----------------------------------------------------------------------------|
-----------------------------------------------------------------------------|



---------------------------------------------------------------------------------------------------|
---------------------------------------------------------------------------------------------------|
---------------------------------------------------------------------------------------------------|
-14h15p14-17-15-14-15-14----14---------------------------------------------------------------------|
-------------------------17----17-15-17-15-14h15p14-15-14-12-14-12----12---------------------------|
-------------------------------------------------------------------17----17-15-17-15-14h15p14-12~--|



-17p13p10-18p13p10-17p13p10-17p12p9-18p12p9-17p12p9--|
-----------------------------------------------------------------------------|
-----------------------------------------------------------------------------|
-----------------------------------------------------------------------------|
-----------------------------------------------------------------------------|
-----------------------------------------------------------------------------|



-------------------------------17-15----15---------|
-15-15-17-18-20-18h20p18-17----------18----18-17\--|
----------------------------18---------------------|
---------------------------------------------------|
---------------------------------------------------|
---------------------------------------------------|



----------17----------------18----------------20-18-17-18-17----17-----------------|
-15-17-18----18-17-15-17-18----18-17-15-17-18----------------20----20-18-17-18-15--|
-----------------------------------------------------------------------------------|
-----------------------------------------------------------------------------------|
-----------------------------------------------------------------------------------|


 3:14 - 3:32
----------------------|
----------------------|
----------------------|
----------------------|
-00-00-0000000000-----|
-00-00-0000000000-----|
 ** ** **********

 3:32 - 3:43
-----17-13--------------------------------------12-|
-----------15--------------------------------15----|
--------------14--------------12-14----12-14-------|
------------------------12-15-------15-------------|________
-0-0-------------0-0-12----------------------------|        \
-0-0-------------0-0-------------------------------|         \
 * *             * *                                          \
                                                               \
-----17-13-----------------------------------------17-------|   \
-----------15-----------------------18----------18----18----|   
--------------14-----------------19----19----19----------19-|   /
------------------------------19----------19----------------|  /
-0-0-------------0-0----17-20-------------------------------|_/
-0-0-------------0-0-19-------------------------------------|
 * *             * *

 3:43 - 3:59
----------------------------------|
----------------------------------|
----------------------------7\10~-|
-0~----------1-3-4-0-1-3-0~-x\x---|
-0~-00-00-00-1-3-4-0-1-3-0~-5\8~--|
-0~-00-00-00-1-3-4-0-1-3-0~-------|
    ** ** ** * * * * * *

 3:59 - 4:12
--------------------------------------------------|
--------------------------------------------------|
--------------------------------------------------|
--------------------------------------------------|
-----5-----7-----8-----7-----7-----5-----8-----4--|
-000---000---000---000---777---777---444---444----|
 ***   ***   ***   ***   ***   ***   ***   ***

 4:12 - 4:23
----------------------------------------------------|
----------------------------------------------------|
----------------------------------------------------|
----------------------------------------------------|
-----8-----7-----12-----10-----7-----5-----8-----4--|
-000---000---000----000----777---777---444---444----|
 ***   ***   ***    ***    ***   ***   ***   ***

 4:23 - 4:36
----------------|
----------------|
----------------|
-0-0-0-0--------|
-0-0-0-0---|
-0-0-0-0--------|


 4:36 - 4:42
------------------------------------------------------------------------------------------------------|
------------------------------------------------------------------------------------------------------|
-------------------------------------------------------------------------------------------<10*>------|
------------------------------------------------------------------------------------------------<11*>-|
------------------------------------------------------------------------------------------------------|
-"0-"1-"0-"3-"0-"1-"4-"3-"0-"1-"3-"2-"0-----------|


 4:42 - 4:48
-----------------------------------------------------------------|
-----------------------------------------------------------------|
-----------------------------------------------------<11*>-------|
-------<12*>----------------------------------------------<12*>--|
-----------------------------------------------------------------|
-0-1-0-------0-1-4-3-"0-"1-"3-"2-0---------------|
 * * *       * * * *                             *

 4:48 - 4:52
-----------------------------------------------------------------------|
-----------------------------------------------------------------------|
-----------------------------------------------------------------------|
-------<12*>-----------------------------------------------------------|
-----------------------------------------------------------------------|
-0-1-0-------0-1-4-3-"0-"1-"3-"2-"0-"3-"2--|
 * * *       * * * * 

 4:52 - 5:06
---------------------------------------------------------------------------|
---------------------------------------------------------------------------|
-----------------------------------------------------<11*>-----<11*>-------|
-------<12*>----------------------------------------------<12*>-----<12*>~-|
---------------------------------------------------------------------------|
-0-1-0-------0-1-4-3-"0-"1-"3-"2-0-------------------------|
 * * *       * * * *                             *

 5:06 - 5:35
--------------------------------------------------------------------------------|
---------------------------------------<12*>------------------------------------|
------------------------------------------------------------6h9p-5h8p---|
--------------------------------------------------------------------------------|
-----------------"0---------------------------------------------------------|
-000-111-444-333--------"10-"13-----000-111-444-333---------------------|
 *** *** *** ***                            *** *** *** ***

 5:35 - 5:41
------------------------------------|
------------------------------------|
------------------------------------|
----------7-------------------------|
-0-0--0-0---10-8-7-0-0-0-0-0-0--0---|
-0-0--0-0----------0-0-0-0-0-0--0---|
 * *  * *          * * * * * *  *

9..15 fathoms counting..

not tabed yet


10.. off heezay..

not tabed yet






i didnt tab any one off these 

Добавлено: 04.06.2013
Другие материалы по этой песне:
  • Аккорды и текст

Страница создана 04.06.2013
http://primanota.ru/bring-me-the-horizon/count-your-blessings-chords.htm
Привет, Гость.
Предлагаем пройти революционный курс по гитаре.
Подарок от PrimaNota.Ru, забирай!