PrimaNota.ru - самый крупный в мире бесплатный архив песенных текстов, аккордов, табулатур и нот


Bring Me The Horizon - Black & Blue - текст песни, таба, бас-таба, видео

Регистрация Запомнить меня
Войти через:  Facebook Google Twitter Vk Yandex Mail.ru

Bring Me The Horizon - Black & Blue - текст песни, таба, бас-таба, видео

Печатать
Просмотров: 365
Уроки эстрадного вокала в Санкт-Петербурге
Track 1


Tuning: B F# B E G# C#


       E    E   E   E    E   E   E    E      E    E   E   E    E   E   E    E   
||-------10--10-------10--10-------10--|-------10--10-------10--10-------10--|
||--13b---L---L--13b---L---L--13b---L--|--13b---L---L--13b---L---L--13b---L--|
||-------------------------------------|-------------------------------------|
||-------------------------------------|-------------------------------------|
||-------------------------------------|-------------------------------------|
||-------------------------------------|-------------------------------------|


   S   S   E   E   S   S   E   E   S   S   E   
--10h-13p-10------10h-13p-10------10h-13p-10--|
--------------13--------------13--------------|
----------------------------------------------|
----------------------------------------------|
----------------------------------------------|
----------------------------------------------|


                                                         |----3----|          
   E   S   S   E   S   S   E   E   E   E      H          E     E   E  E   E   
------10h-13p-10--10h-13p-10------13--10--|--13b--------13pb--12-------------|
--12--------------------------13----------|-----------------------10--8s--6--|
------------------------------------------|----------------------------------|
------------------------------------------|----------------------------------|
------------------------------------------|----------------------------------|
------------------------------------------|----------------------------------|


  Q    H        Q      
----------------------|
--6----5--------L/----|
----------------------|
----------------------|
----------------------|
----------------------|


   |----3----|   |----3----|   |----3----|   |----3----|   
   E    E    E   E    E    E   E    E    E   E    E    E   
--17p--15p--13----------------13p--12p--10----------------|
----------------17p--15p--13----------------13p--11p--10--|
----------------------------------------------------------|
----------------------------------------------------------|
----------------------------------------------------------|
----------------------------------------------------------|


   |----3---|                                                         
   E    E   E   E  E  H               E   E   E   E   E   E   E   E   
--------------------------------||---17----------17----------17------|
--11p--10p--8-------------------||-------18----------18----------18--|
---------------10--9--7~--------||*----------19----------19----------|
--------------------------------||*----------------------------------|
--------------------------------||-----------------------------------|
--------------------------------||-----------------------------------|


   E   E   E   E   E   E   E   E   
--18----------18----------18------|
------18----------18----------18--|
----------19----------19----------|
----------------------------------|
----------------------------------|
----------------------------------|


   |----3----|   |----3----|   |----3----|   |----3----|   
   E    E    E   E    E    E   E    E    E   E    E    E   
--20p--13p--10--20p--13p--10--20p--13p--10--20p--13p--10--|
----------------------------------------------------------|
----------------------------------------------------------|
----------------------------------------------------------|
----------------------------------------------------------|
----------------------------------------------------------|


   |----3----|   |----3----|   |----3----|   |----3----|     
   E    E    E   E    E    E   E    E    E   E    E    E     
--20p--13p--10--20p--13p--10--20p--13p--10--20p--13p--10---||
-----------------------------------------------------------||
----------------------------------------------------------*||
----------------------------------------------------------*||
-----------------------------------------------------------||
-----------------------------------------------------------||


    |----3----|   |----3----|   |----3----|   |----3----|   
    E    E    E   E    E    E   E    E    E   E    E    E   
---22p--13p--10--20p--13p--10--22p--13p--10--24p--13p--10--|
-----------------------------------------------------------|
*----------------------------------------------------------|
*----------------------------------------------------------|
-----------------------------------------------------------|
-----------------------------------------------------------|


   |----3----|   |----3----|   |----3----|   |----3----|   
   E    E    E   E    E    E   E    E    E   E    E    E   
--22p--13p--10--20p--13p--10--22p--13p--10--20p--13p--10--|
----------------------------------------------------------|
----------------------------------------------------------|
----------------------------------------------------------|
----------------------------------------------------------|
----------------------------------------------------------|


   |----3----|   |----3----|   |----3----|   |----3----|   
   E    E    E   E    E    E   E    E    E   E    E    E   
--22p--13p--10--20p--13p--10--22p--13p--10--24p--13p--10--|
----------------------------------------------------------|
----------------------------------------------------------|
----------------------------------------------------------|
----------------------------------------------------------|
----------------------------------------------------------|


   |----3----|   |----3----|   |----3----|   |----3----|     
   E    E    E   E    E    E   E    E    E   E    E    E     
--22p--13p--10--20p--13p--10--22p--13p--10--20p--13p--10---||
-----------------------------------------------------------||
----------------------------------------------------------*||
----------------------------------------------------------*||
-----------------------------------------------------------||
-----------------------------------------------------------||


   |----3----|   |----3----|   |----3----|   |----3----|    
   E    E    E   E    E    E   E    E    E   E    E    E    
--17p--15p--13--------------------------------------------||
----------------17p--15p--13------------------------------||
------------------------------15p--14p--12----------------||
--------------------------------------------15p--14p--12--||
----------------------------------------------------------||
----------------------------------------------------------||




Duration Legend
---------------
W - whole
H - half
Q - quarter
E - 8th
S - 16th
T - 32nd
X - 64th
. - note dotted
|-n-|  - n-tuplets


Tablature Legend
----------------
L - tied note
x - dead note
g - grace note
(n) - ghost note
> - accentuded note
NH - natural harmonic
AH - artificial harmonic
TH - tapped harmonic
SH - semi harmonic
PH - pitch harmonic
h - hammer on
p - pull off
b - bend
br - bendRelease
pb - preBend
pbr - preBendRelease
brb - bendReleaseBend
\n/ - tremolo bar dip
\n - tremolo bar dive
-/n - tremolo bar Release up
/n\ - tremolo bar inverted dip
/n - tremolo bar return
-\n - tremolo bar Release down
S - shift slide
s - legato slide
/ -  slide into from below or out of upwards
\ -  slide into from above or out of downwards
~ - vibrato
W - wide vibrato
tr - trill
TP - tremolo picking
T - tapping
S - slap
P - pop
< - fade in
^ - brush up
v - brush down
Добавлено: 04.12.2013
Другие материалы по этой песне:
  • Аккорды и текст

Страница создана 29.03.2012
http://primanota.ru/bring-me-the-horizon/black-and-blue-chords.htm
Привет, Гость.
Предлагаем пройти революционный курс по гитаре.
Подарок от PrimaNota.Ru, забирай!