PrimaNota.ru - самый крупный в мире бесплатный архив песенных текстов, аккордов, табулатур и нот


Bring Me The Horizon - Anthem - текст песни, таба, видео

Регистрация Запомнить меня
Войти через:  Facebook Google Twitter Vk Yandex Mail.ru

Bring Me The Horizon - Anthem - текст песни, таба, видео

Печатать
Просмотров: 542
Bring me the horizon
Anthem
There is a hell believe me i've seen it. There is a heaven lets keep it a secret.

Managed to make this tab sound as good as I possibly could, pretty sure it's about 95% 
:)

Intro
C|------------------------------------------------|
G|------------------------------------------------|
D|------------------------------------------------|
A|------------------------------------------------|
F|------------------------------------------------|
A|-1212121212(12's lots of times)-8-88-8-10-7-11--|

Verse 1
C|-------------------------------------------------|
G|-------------------------------------------------|
D|-------------------------------------------------|
A|----12--14-------12----13------------------------|
F|--------------------------------13-131313-121212-|
A|-0-0--00---12-12---1212--0-0-00-13-131313-121212-|

At the end of both the second and fourth times play:
C|-----------------------|
G|-----------------------|
D|-----------------------|
A|-----------------------|  Sould be able to hear when its played.
F|-8-88-8-10h-7-77-11-11-|  Play all of verse 1 four times.
A|-8-88-8-10h-7-77-11-11-|

Verse 2.
C|---------------------------|
G|---------------------------|
D|-5-/7-7-777-------8-888888-|
A|-x-/x-x-xxx -(x5)-x-xxxxxx-|
F|-3-/5-5-555-------6-666666-|
A|---------------------------|

C|--------------------------------------------|
G|--------------------------------------------|
D|-5-/7-7-777-5-/7-7-777-5-/7-7-777----7--8---|
A|-x-/x-x-xxx-x-/x-x-xxx-x-/x-x-xxx-----------|
F|-3-/5-5-555-3-/5-5-555-3-/5-5-555-6-6-66----|
A|--------------------------------------------|

Break                                 (16's)                         (13's)
C|-------------------------------------------------------------------------|
G|-------------------------------------------------------------------------|
D|-------------------------------------------------------------------------|
A|----10--12--------------10--12-------------------10--12------------------|
F|------------13-1313------------------------------------------------------|
A|-0-0--00--0-13-1313--0-0--00---0-/16161616-10-0-0--00--0-131313-1/131313-|

**REPEAT VERSE 1 x4**

Verse 2: Slightly different                                 (10's)  (15's)
C|-------------------------------------|                 |----------------|
G|-------------------------------------|                 |----------------|
D|5-/7-7---------5-/7-7----------------|                 |----------------|
A|x-/x-x---------x-/x-x--10----12-12---|2nd time end with|----------------|
F|3-/5-5-0---0---3-/5-5----------------|                 |12-1010-15-1515-|
A|-------0-0-0-0--------0--1212--------|                 |12-1010-15-1515-|

"This happens all the time" break part.
C|-------------------------------|
G|-------------------------------|
D|5-/77-7\-----5-/77-7---------8-|
A|x-/xx-x\-----x-/xx-x----1----x-|
F|3-/55-5\-00--3-/55-5-00-1-00-6-|
A|---------00----------00-1-00---|

"I hate to say I told you so" Part.
C|-------------------------------------------------------------------------|
G|-------------------------------------------------------------------------|
D|-------------------------------------------------------------------------|
A|-------------------------------------------------------------------------|
F|-------------------------------------------------------------------------|
A|-0-121212(12's)-10-1212-121212-10-13-10-12121212-16-15-13-12-16-15-13-12-|

            (12's)                          (19's)
C|-----------------------------------------------------------|
G|-----------------------------------------------------------|
D|-----------------------------------------------------------|
A|-----------------------------------------------------------|
F|-----------------------------------------------------------|
A|10-1212-1212121212-10-13--0/13-1/16-4/19-1919191919191919--|

Start of breakdown, slow part.
C|----------------------|
G|----------------------|
D|----------------------|
A|----------------------|
F|----------------------|
A|0-00000-------0-00000-|

Breakdown: Timing may not be perfect so working from the track is best.
C|-----------------------------------------------------------------------|
G|-----------------------------------------------------------------------|
D|---------------------------888-----------------------------------------|
A|---------------------------xxx-----------------------------------------|
F|---------------------------666-----------------------------------------|
A|-0-00-00-0-00-00--00-00-000----0-00-00--0-00-00-12-10-13--6-5-0-3-5-00-|

Synthy/Very muted part and powerchords

C|-------------------------------------|
G|-------------------------------------|
D|-------------------------------------|
A|---------------------5-555--5/8-888--|
F|-8888888888777777777-5-555--5/8-888--|
A|---------------------5-555--5/8-888--|

High fast-picked part.
    (13's)         (17's)         (18's)    (15's)                  (20's)
C|13131313131313171717--------------------15151515151515181818171720202020-|
G|--------------------17171717171718181818---------------------------------|
D|-------------------------------------------------------------------------|
A|-------------------------------------------------------------------------|
F|-------------------------------------------------------------------------|
A|-------------------------------------------------------------------------|

Another bridge... Kind of.
C|---------------------------------------------------|
G|---------------------------------------------------|
D|---------------------------------------------------|
A|---------------------------------------------------|
F|---------------------------------------------------|
A|1212121212(Loads and loads of 12's)-8-88-8-10-7-11-|

**REPEAT VERSE 1 AGAIN**

Ending breakdown
C|-------------------------------------------------------------|
G|-------------------------------------------------------------|
D|----------------------------------------------------88885555-|
A|-0~-13--10-----------3--------5---1-------------1---xxxxxxxx-|
F|-0~-13--10--0-0-0-0--------------3-------------3----66663333-|
A|-0~-13--10--0-0-0-0-0--000-000-0----000-000-000--00----------|

On the last one play almost all of it with open notes:
C|--------------------------------------------------------|
G|--------------------------------------------------------|
D|---------------------------------------------88885555\--|
A|------------------------------------------00-xxxxxxxx\--|
F|-0-0-0-0----------------00-------------00-00-66663333\--|
A|-0-0-0-0-00-000-000-000-00-000-000-000-00-00------------|

End!

Didn't bother with palm mutes because there all fairly obvious, and there aren't many in 
song.
Really easy once you get the structure right
Anyfeedback or improvements, it's Westdene41@btinternet.com and i'l try to add them to 
tab as soon as i can. Thanks for looking at the tab, hope it helps! :D
Добавлено: 30.06.2013
Другие материалы по этой песне:
  • Аккорды и текст

Страница создана 30.06.2013
http://primanota.ru/bring-me-the-horizon/anthem-chords.htm
Привет, Гость.
Предлагаем пройти революционный курс по гитаре.
Подарок от PrimaNota.Ru, забирай!