PrimaNota.ru - самый крупный в мире бесплатный архив песенных текстов, аккордов, табулатур и нот


Bring Me The Horizon - Administrator - таба, видео

Регистрация Запомнить меня
Войти через:  Facebook Google Twitter Vk Yandex Mail.ru

Bring Me The Horizon - Administrator - таба, видео

Печатать
Просмотров: 467
Уроки эстрадного вокала в Санкт-Петербурге
  Intro
E-----------------------|
B-----------------------|
G-----------------------|  x4
D--0-2-3-0-2-1---0-12-^-|
A--0-2-3-0-2-1---0-12-^-|
E--0-2-3-0-2-1----------|
   * * * * * *   * *

E-------------------------------|
B-------------------------------|
G-------------------------------|
D-------------------------------|  X2
A--00-0241-00-00,00-0241-00-00--|
E--00-0241-00-00,00-0241-00-00--|
   **      ** ** **      ** **

E--------------------------------|
B--------------------------------|
G--------------------------------|
D--------------------------------|
A--6-3-5-2-6-3-5-2-"6-"3-"5-"2---|
E--X-X-X-X-X-X-X-X--X--X--X--X---|
   * * * * * * * *

Bridge

E-------------------------------------------------------|
B-------------------------------------------------------|
G-------------------------------------------------------|
D----------------x2---5~--0241-0~-00-5~-0241-0~--3------|
A--"4-"0-"1-"3--------5~--0241-0~-00-5~-0241-0~--3--5^--|
E--"4-"0-"1-"3--------5~--0241-0~-00-5~-0241-0~--3------|
                          ****    **    ****     *

E--------------------------------------------------------------------|
B--------------------------------------------------------------------|
G--------------------------------------------------------------------|
D---------------/-------------------------------X2-then--------------|
A---00-000-4-1--/--00--000--3h63h63h63h6--2>-5---------3h63h63h63h6--|
E---00-000-4-1--/--00--000-----------------------------3-3-3-3-3-3---|
    ** ***         **  ***                             * * * * * *

E--------------------------------------------------------------------------|
B--------------------------------------------------------------------------|
G--------------------------------------------------------------------------|
D--------------------------------------------------------------------------|
A--336h3-336h3-336h3-336h3-669h6-669h6-669h6-669h6-225h2-225h2-225h2-225h2-|
E--33----33----33----33----66----66----66----66----22----22----22----22----|
   **    **    **    **    **    **    **    **    **    **    **    **

then...
E-------------|
B-------------|
G-------------|
D--"1---"3----|
A--"1---"3----|
E--"1---"3----|

E-------------------------------------------|
B-------------------------------------------|
G-------------------------------------------|
D---------------------------------1~-0~-3~--|
A--6-333-6-3-6-3--5-222-5-2-5-2---1~-0~-3~--|
E--3-333-3-3-3-3--2-222-2-2-2-2---1~-0~-3~--|

E-------------------------------------------|
B-------------------------------------------|
G-------------------------------------------|
D---------------------------------1~-0-3~---|
A--6-333-6-3-6-3--5-222-5-2-5-2---1~-0-3~---|
E--3-333-3-3-3-3--2-222-2-2-2-2---1~-0-3~---|
                                     *
                                     ^
                                (dive bomd)

E-----------------------------------------------------------------|
B-----------------------------------------------------------------|
G-----------------------------------------------------------------|
D----------------------------------9-------10-------3h63h63h63h6--|
A--0000-3h63h63h63h6--0000---5-8-6---6-9-6-----0000---------------|
E--0000---------------0000---------------------0000---------------|
   ****               ****                     ****

E---------------------------------------------|
B---------------------------------------------|
G---------------------------------------------|
D--0000--3~--0000-3-4--0000-3~--0-333-0-111---|
A--0000--3~--0000-3-4--0000-3~--0-333-0-111---|
E--0000--3~--0000-3-4--0000-3~--0-333-0-111---|
   ****      ****      ****     *     *

E--------------------------------------------------------|
B--------------------------------------------------------|
G--------------------------------------------------------|
D--0000---7~-0000---7-8--0000---4~---0--888--0--444------|
A--0000---7~-0000---7-8--0000---4~---0--888--0--444--00--|
E--0000---7~-0000---7-8--0000---4~---0--888--0--444--00--|
   ****      ****        ****        *       *       **
Добавлено: 11.06.2013
Другие материалы по этой песне:
  • Аккорды и текст

Страница создана 11.06.2013
http://primanota.ru/bring-me-the-horizon/administrator-chords.htm
Привет, Гость.
Предлагаем пройти революционный курс по гитаре.
Подарок от PrimaNota.Ru, забирай!