PrimaNota.ru - самый крупный в мире бесплатный архив песенных текстов, аккордов, табулатур и нот


Breaking Benjamin - Saturate - аккорды и текст, таба, видео

Регистрация Запомнить меня
Войти через:  Facebook Google Twitter Vk Yandex Mail.ru

Breaking Benjamin - Saturate - аккорды и текст, таба, видео

Печатать
Просмотров: 247
Уроки эстрадного вокала в Санкт-Петербурге
Saturate
Breaking Benjamin
-------------------------------------------------------------------------------
                             Saturate - Breaking Benjamin
-------------------------------------------------------------------------------
Tabbed by: kerk12 (Same on Steam)
E-mail: kerk12gr@gmail.com

Tuning: Half Step Down (Eb Ab Db Gb Bb Eb)
All the chords are relative to the tuning.

A good song by one of my favourite bands, Breaking Benjamin! I couldn't find any 
chords/tabs anywhere, so I thought I should accept the challenge(not really a challenge but 
whatever...). Please rate/fav/comment :D.

[Intro]: (Just pluck the open strings together, as in the tab.)
eb|--0--0-----0--0--------0--------0----------------|
Bb|--------------------0--------0-------------------|
Gb|-------------------------------------------------|
Db|-------------------------------------------------|
Ab|--0--0-----0--0----------------------------------|
Eb|--------------------0--0-----0--0----------------|
(Then the chord progression starts...)

[Intro Chords]:
A        (B)   E
A        (B)   E

[Verse 1]
       A                  (B)   E
Do you know that I could never leave you?
        A             (B)  E
And you know I could never beat you?
       A             (B)   E              A                (B) E
And if i, if I could never find you nevermind, I would not forget you.

[Chorus]:
   C#m  E           A
Can I  stay alive forever?
   C#m  E           A
Can I  stay alive forever?
   C#m  E           A
Can I  stay alive forever?
   E
Forever.

[REPEAT INTRO CHORDS]:
A        (B)   E

[Verse 2]
      A             (B) E
Can I feel a chemical reaction?
          A             (B)  E
Because I feel a hideous Attraction
      A              (B) E
Could we share a poison apple?
         A        (B)    E
Could it be maniacle and awful?

[Chorus]:
   C#m  E           A
Can I  stay alive forever?
   C#m  E           A
Can I  stay alive forever?
   C#m  E           A
Can I  stay alive forever?
   E        A
Forever. Forever
              E
Stay alive forever
  A     (Palm mute, and if you have an electric, switch to power chords)
Forever
              E
Stay alive forever
              A
Stay alive forever
              E
Stay alive forever
              A
Stay alive forever

[Outro Solo]:
eb|--------------------------------------------------------------------------------------|R
Bb|--------------------------------------------------------------------------------------|E
Gb|--9-9-9-11-11-11-13-13-9-9-9-11-11-11-13-13-14-13--14-13--14-13--14-13-16-16-16-|P 2--|
Db|--x-x-x-x--x--x--x--x--x-x-x-x--x--x--x--x--x--x---x--x---x--x---x--x--x--x--x--------|E X
Ab|--7-7-7-9--9--9--11-11-7-7-7-9--9--9--11-11-12-11--12-11--12-11--12-11-14-14-14-------|A
Eb|--------------------------------------------------------------------------------------|T

              E~~~
Stay alive forever
Добавлено: 24.02.2014
Другие материалы по этой песне:
  • Аккорды и текст

Страница создана 17.09.2013
http://primanota.ru/breaking-benjamin/saturate-chords.htm
Привет, Гость.
Предлагаем пройти революционный курс по гитаре.
Подарок от PrimaNota.Ru, забирай!