PrimaNota.ru - самый крупный в мире бесплатный архив песенных текстов, аккордов, табулатур и нот


Brad Paisley - Cliffs Of Rock City Part 1 - таба, видео

Регистрация Запомнить меня
Войти через:  Facebook Google Twitter Vk Yandex Mail.ru

Brad Paisley - Cliffs Of Rock City Part 1 - таба, видео

Печатать
Просмотров: 120
E--------------------0---------------------------0----------------------------------|
B----0--0--0------0-----0-------0--0--0------0---0~----9--5---4-5-4-----------------|
G---3-3--3--3----2-2--2--2-----3-3--3--3----2-2--2~-----6--6-------6-4--------------|
D--4---4--4--4--2---2--2--2---4---4--4--4--2---2-2~-/6---6--6----------6-4----------|
A--------------0--------------------------0------0~---------------------------------|
E-2--------------------------2------------------------------------------------------|

E------------------0---4-2-0----------------------------------------0-0--------------|
B------------------0---0-0-0-4p2p0--9--5---4-5-4--------------------5-7-9-7-5-4------|
G-------1-2-4bh(6)--------------------6--4-------6-4----------1-2-4/6-----------6-4--|
D-1-2-4--------------------------------6--6----------6-4\1-2-4-----------------------|
A------------------------------------------------------------------------------------|
E------------------------------------------------------------------------------------|

E-----------------------------------0-2--4-2-0--------------------------------------|
B-9--5---4-5-4----------------------0-0--0-0-0-4p2p0---~-9\-9--12-10-9--------------|
G--6--4-------6-4---------1-2-4bh(6)-------------------~-9\--9---------9-11~~11\----|
D---6--6---------6-4\1-2-4-----------------------------~-9\---9---------------------|
A-----------------------------------------------------------------------------------|
E-----------------------------------------------------0-----------------------------|

E------------------------------------------------------------------------------------|
B-7---10-9------------------9-9-------12-10-9---------------9~9\-9--12-10-9----------|
G--8-------11-8-9~~9\--9-11-----11-9---------11~~11-9-------9~9\--9---------9-11~11--|D
A------------------------------------------------------------------------------------|
E------------------------------------------------------------------------------------|

E-----------------------------------------------------------------------------------|
B-7---10-9----------------------9-9--------12-10-9---------------12~10~-------------|
G--8-------11-8-9~9\--9-11bh(13)----11b-9-----------11~11-9------------11/13~~11~~--|
D---10------------------------------------------9--9--------11-9--------------------|
A-----------------------------------------------------------------------------------|
E-----------------------------------------------------------------------------------|

E-------------------------------------------------0-2--4-2-0------------------------|
B------------9--5---4-5-4-------------------------0-0--0-0-0-4p2p0------------------|
G-11-9--------6--6--------6-4-----------1-2-4Bh(6)----------------------------------|
D------11-9----6--6-----------6-4\1-2-4---------------------------------------------|
A-----------------------------------------------------------------------------------|
E-----------------------------------------------------------------------------------|

E------------------------------------------------------------------------------------|
B-9--5---4-5-4--------------7-7-----14-14-----16-16--16-16p14----9--5---4-5-4--------|
G--6--6--------6-4---------8------13--------16---------------16---6--6--------6-4----|
D---6--6-----------6-4\1--9-----13--------16-----------------------6--6--------------|
A------------------------------------------------------------------------------------|
E------------------------------------------------------------------------------------|
                          [ Sweep----------------------------------------------------|

E--------------------0-4h5p4p0------0-----------------------------------------------|
B------------------------------0h2h4-4p2p0-----0------------------------------------|
G-----------1-2-4b(6)---------------------0h1h2-2p1p0-------------------------------|
D-6-4\1-2-4------------------------------------------2p0h2--------------------------|
A-----------------------------------------------------------------------------------|
E-----------------------------------------------------------------------------------|

E-----------------------------------------------------------------------------------|
B-9~-9\-9--12-10-9-----------7---10-9------------------9-9------12-10-9-------------|
G-9~-9\--9---------9-11~~11\--8-------11-8-11b~9\--9-11----11-9---------11-9~-------|
D---------9--------------------10------------------------------9--9--9-------6------|
A------------------------------------------------------------------------------7----|
E-0---------------------------------------------------------------------------------|

E-----------------------------------------------9-----9-----------------------------|
B-----9--12-10-9-----------7---10-9---------------12b--12-9---9---------------------|
G--9\--9---------9-11~~11\--8-------11-8-11b(13)------------11-11-9-----------------|
D--9\---9--------------------10------------------------------------11-9-------------|
A----------------------------------------------------------------------11-9---------|
E-0---------------------------------------------------------------------------------|

E---------------------12-11-9-------------------------------------------------------|
B-/12\10-9--------------------12-10-9-----------------------------------------------|
G-----------11~11-9-------------------11-9-11b(13)----------------------------------|
D-------9-9--------11-9-------------------------------------------------------------|
A-----------------------------------------------------------------------------------|
E-----------------------------------------------------------------------------------|
Добавлено: 19.05.2012
Другие материалы по этой песне:
  • Аккорды и текст

Страница создана 19.05.2012
http://primanota.ru/brad-paisley/cliffs-of-rock-city-part-1-chords.htm
Привет, Гость.
Предлагаем пройти революционный курс по гитаре.
Подарок от PrimaNota.Ru, забирай!