PrimaNota.ru - самый крупный в мире бесплатный архив песенных текстов, аккордов, табулатур и нот


Brad Paisley - Cluster Pluck Part 3 - таба, видео

Регистрация Запомнить меня
Войти через:  Facebook Google Twitter Vk Yandex Mail.ru

Brad Paisley - Cluster Pluck Part 3 - таба, видео

Печатать
Просмотров: 100
Solo #5 with delay
E-----------------------------------------------------------------|
B-------1-3p1---3p1-----1-------1-3p1---3p1-----1-----------------|
G---0-2-------2-----2-0-----0-2-------2-----2-0-----------7-----7-|
D-0-----------------------0-----------------------4-5-7-4---7-6---|
A-----------------------------------------------------------------|
E-----------------------------------------------------------------|


E-----------------------------------------12----------16-------16-17-|
B--------------------10------10-9---12-------12----12----------------|
G-----9------9-11-------11-9------9----13-------14-------14-14-------|
D-9-6---9-12------12-------------------------------------------------|
A--------------------------------------------------------------------|
E--------------------------------------------------------------------|

Solo #6
E-17-12----17-12----17-12----17-12----12-14-15p14p12-14-15-14-12----|
B-------14-------14-------14-------14----------------------------14-|
G-------------------------------------------------------------------|
D-------------------------------------------------------------------|
A-------------------------------------------------------------------|
E-------------------------------------------------------------------|

E-------12----------------------------------------------------------|
B-13h14----14-13-12-------------------------------------------------|
G-------------------14-12----14-12p11----11\9----9\7---7\6---6------|
D-------------------------14----------12------11-----9-----7---5-7--|
A-------------------------------------------------------------------|
E-------------------------------------------------------------------|


E-------------------------------------------|
B---6-8-5h6p6\3---0-------------------------|
G-5-------------5---0-2h4p2p0-------------2-|
D-----------------------------3p2p0---------|
A-----------------------------------3p2p0---|
E-------------------------------------------|

Solo #7
E-----------------------------------------------------------------|
B-------------------------------2---------------------------------|
G-----2p0---0---------2---4b(6)---4b(6)r4-2---2p0---0-------------|
D-------------1p0-------4-------------------4-----4---4p2p0-----2-|
A-2/4-----4-------3h4---------------------------------------3h4---|
E-----------------------------------------------------------------|

E---------------------------------------------5---------------------|
B-----2-----2-----------------------------------8p5---5-------------|
G-0h2---0-0---0---6-0---6-0-----5b(6)---7b(9)-------7---8\7p5---7---|
D---------------5-----5-----5h7-------7-----------------------7---7-|
A-------------------------------------------------------------------|
E-------------------------------------------------------------------|


E-------------|
B-------------|
G-5b(6)-------|
D-------7-5-7-|
A-------------|
E-------------|

Solo #8
E-10-----------------10------10--------------10------10---------------|
B----13--------------13------13--------------13------13---------------|
G-------(14)r12b(14)----(14)----(14)r12b(14)----(14)----(14)r12-12p10-|
D---------------------------------------------------------------------|
A---------------------------------------------------------------------|
E---------------------------------------------------------------------|

E-------------------------------------------------------------------|
B-------------10--------------------------------------------------6-|
G----12p10----10b(11)--------------------------------0-1-2-5-7b(8)--|
D-12-------12---------12-10-10-7\5p3-5-3h4-0-----0-3----------------|
A--------------------------------------------0-3--------------------|
E-------------------------------------------------------------------|


E--------5------------------------------|
B-8b(10)---(10)r8-6---8-6---------------|
G-------------------7-----7-5-----------|
D-----------------------------7-6-5-----|
A-----------------------------------8-5-|
E---------------------------------------|
Добавлено: 01.04.2012
Другие материалы по этой песне:
  • Аккорды и текст

Страница создана 01.04.2012
http://primanota.ru/brad-paisley/cluster-pluck-part-3-chords.htm
Привет, Гость.
Предлагаем пройти революционный курс по гитаре.
Подарок от PrimaNota.Ru, забирай!