PrimaNota.ru - самый крупный в мире бесплатный архив песенных текстов, аккордов, табулатур и нот


Boyce Avenue - Drive - аккорды и текст, видео

Регистрация Запомнить меня
Войти через:  Facebook Google Twitter Vk Yandex Mail.ru

Boyce Avenue - Drive - аккорды и текст, видео

Печатать
Просмотров: 84
Drive
Boyce Avenue
Drive - Incubus
Boyce Avenue Acoustic Cover

[TUNING]

Half-Step Down


[CHORDS]

Em7    D   C7M    Asus2

e|3|  e|2|  e|0|  e|0|
B|3|  B|3|  B|0|  B|0|
G|0|  G|2|  G|0|  G|2|
D|2|  D|0|  D|2|  D|2|
A|2|  A|0|  A|3|  A|0|
E|0|  E|0|  E|0|  E|0|


[INTRO]
Em7  D  C7M    Asus2    2x

[VERSE]      
Em7    D    C7M      Asus2  
Sometimes, I feel the fear of
Em7    D    C7M      Asus2
uncertainty stinging clear
Em7        D        C7M          Asus2
And I can't help but ask myself how much 
Em7        D        C7M          Asus2
I'll let the fear take the wheel and steer.

[BRIDGE]
C7M              A7            C7M               A7
It's driven me before and it seems to have a vague, haunting mass appeal.
C7M              A7            C7M               A7
But lately I'm beginning to find that I should be the one behind the wheel.

[CHORUS]
Em7    D    C7M      Asus2         
Whatever tomorrow brings, I'll be there 
Em7    D    C7M      Asus2        
with open arms and open eyes, Yeah
Em7    D    C7M      Asus2              
Whatever tomorrow brings, I'll be there..
Em7    D    C7M      Asus2 
..I'll be there.

[Verse]
Em7    D    C7M      Asus2  
So, if I decide to waiver my chance
Em7    D    C7M      Asus2
to be one of the hive
Em7    D    C7M      Asus2  
Will I choose water over wine
Em7    D    C7M      Asus2  
and hold my own and drive? Ahaa-aa-aa-aa.

[BRIDGE]
C7M              A7            C7M               A7
It's driven me before and it seems to be the way that everyone else gets around.
C7M              A7            C7M               A7
But lately I'm beginning to find that when I drive myself my light is found.

[CHORUS]
Em7    D    C7M      Asus2         
Whatever tomorrow brings, I'll be there 
Em7    D    C7M      Asus2        
with open arms and open eyes, Yeah
Em7    D    C7M      Asus2              
Whatever tomorrow brings, I'll be there..
Em7    D    C7M      Asus2 
..I'll be there.

[Solo Guitar]
Em7  D  C7M    Asus2    4x or

     Em7     D     C7M       Asus2     Em7     D      C7M        Asus2
e|--------------------------------------------------------------------------------|
B|---------------------------10/12--10/7--8---------------------------------------|
G|---------------7--7h9~~~~------------------14-----------------------------------|
D|---------7--9----------------------------------12--14--12h14--12--12h14--12h14--|
A|--7--10-------------------------------------------------------------------------|
E|--------------------------------------------------------------------------------|

     Em7     D     C7M       Asus2              Em7           D           C7M             Asus2
e|-------------------------------------------------------------------------------------------------------------|
B|----------------------------/15--12------12------------------------------------------------------------------|
G|--12--14--14/16--16h17--14-----------14--------------------------------12/14--14--12--12--9--9--7--7\4--2/4--|
D|---------------------------------------------14--12--14--12h14--12~~-----------------------------------------|
A|-------------------------------------------------------------------------------------------------------------|
E|-------------------------------------------------------------------------------------------------------------|


[BRIDGE]
C7M              A7            C7M               A7
Would you choose water over wine....hold the wheel and drive?

[CHORUS]
Em7    D    C7M      Asus2         
Whatever tomorrow brings, I'll be there 
Em7    D    C7M      Asus2        
with open arms and open eyes, Yeah
Em7    D    C7M      Asus2              
Whatever tomorrow brings, I'll be there..
Em7    D    C7M      Asus2 
..I'll be there, Yeah

Em7    D    C7M      Asus2         
Do do do do do do do do do do do do
Em7    D    C7M      Asus2
oh no no du du du du du
Em7    D    C7M      Asus2  
Do do do do do do do do do do do do
Em7    D    C7M      Asus2    A7
oh no no no no no no no

[END]

~open for suggestion and correction~
hizkialiu@yahoo.com
Добавлено: 10.04.2016
Другие материалы по этой песне:
  • Аккорды и текст

Страница создана 10.04.2016
http://primanota.ru/boyce-avenue/drive-chords.htm
Привет, Гость.
Предлагаем пройти революционный курс по гитаре.
Подарок от PrimaNota.Ru, забирай!